  0
SECTION
  2
HEADER
  9
$ACADVER
  1
AC1009
  9
$INSBASE
 10
0.0
 20
0.0
 30
0.0
  9
$EXTMIN
 10
-0.222511970275054
 20
-0.0000000120406174
 30
-0.0000000024140865
  9
$EXTMAX
 10
1.1999999927384859
 20
24.996508777021891
 30
15.996508786648411
  9
$LIMMIN
 10
0.0
 20
0.0
  9
$LIMMAX
 10
420.0
 20
297.0
  9
$ORTHOMODE
 70
     1
  9
$REGENMODE
 70
     1
  9
$FILLMODE
 70
     1
  9
$QTEXTMODE
 70
     0
  9
$MIRRTEXT
 70
     0
  9
$DRAGMODE
 70
     2
  9
$LTSCALE
 40
1.0
  9
$OSMODE
 70
    11
  9
$ATTMODE
 70
     1
  9
$TEXTSIZE
 40
2.5
  9
$TRACEWID
 40
1.0
  9
$TEXTSTYLE
  7
STANDARD
  9
$CLAYER
  8
0
  9
$CELTYPE
  6
BYLAYER
  9
$CECOLOR
 62
   256
  9
$DIMSCALE
 40
1.0
  9
$DIMASZ
 40
0.18
  9
$DIMEXO
 40
0.0625
  9
$DIMDLI
 40
0.38
  9
$DIMRND
 40
0.0
  9
$DIMDLE
 40
0.0
  9
$DIMEXE
 40
0.18
  9
$DIMTP
 40
0.0
  9
$DIMTM
 40
0.0
  9
$DIMTXT
 40
0.18
  9
$DIMCEN
 40
0.09
  9
$DIMTSZ
 40
0.0
  9
$DIMTOL
 70
     0
  9
$DIMLIM
 70
     0
  9
$DIMTIH
 70
     1
  9
$DIMTOH
 70
     1
  9
$DIMSE1
 70
     0
  9
$DIMSE2
 70
     0
  9
$DIMTAD
 70
     0
  9
$DIMZIN
 70
     0
  9
$DIMBLK
  1

  9
$DIMASO
 70
     1
  9
$DIMSHO
 70
     1
  9
$DIMPOST
  1

  9
$DIMAPOST
  1

  9
$DIMALT
 70
     0
  9
$DIMALTD
 70
     2
  9
$DIMALTF
 40
25.399999999999999
  9
$DIMLFAC
 40
1.0
  9
$DIMTOFL
 70
     0
  9
$DIMTVP
 40
0.0
  9
$DIMTIX
 70
     0
  9
$DIMSOXD
 70
     0
  9
$DIMSAH
 70
     0
  9
$DIMBLK1
  1

  9
$DIMBLK2
  1

  9
$DIMSTYLE
  2
STANDARD
  9
$DIMCLRD
 70
     0
  9
$DIMCLRE
 70
     0
  9
$DIMCLRT
 70
     0
  9
$DIMTFAC
 40
1.0
  9
$DIMGAP
 40
0.09
  9
$LUNITS
 70
     2
  9
$LUPREC
 70
     4
  9
$SKETCHINC
 40
1.0
  9
$FILLETRAD
 40
0.05
  9
$AUNITS
 70
     0
  9
$AUPREC
 70
     0
  9
$MENU
  1
.
  9
$ELEVATION
 40
0.0
  9
$PELEVATION
 40
0.0
  9
$THICKNESS
 40
0.0
  9
$LIMCHECK
 70
     0
  9
$BLIPMODE
 70
     0
  9
$CHAMFERA
 40
0.0
  9
$CHAMFERB
 40
0.0
  9
$SKPOLY
 70
     0
  9
$TDCREATE
 40
2455519.444526678
  9
$TDUPDATE
 40
2455635.6625855318
  9
$TDINDWG
 40
0.0618392593
  9
$TDUSRTIMER
 40
0.0618392361
  9
$USRTIMER
 70
     1
  9
$ANGBASE
 50
0.0
  9
$ANGDIR
 70
     0
  9
$PDMODE
 70
     3
  9
$PDSIZE
 40
-2.5
  9
$PLINEWID
 40
0.0
  9
$COORDS
 70
     1
  9
$SPLFRAME
 70
     0
  9
$SPLINETYPE
 70
     6
  9
$SPLINESEGS
 70
     8
  9
$ATTDIA
 70
     0
  9
$ATTREQ
 70
     1
  9
$HANDLING
 70
     1
  9
$HANDSEED
  5
151E91
  9
$SURFTAB1
 70
     6
  9
$SURFTAB2
 70
     6
  9
$SURFTYPE
 70
     6
  9
$SURFU
 70
     6
  9
$SURFV
 70
     6
  9
$UCSNAME
  2

  9
$UCSORG
 10
0.0
 20
0.0
 30
0.0
  9
$UCSXDIR
 10
1.0
 20
0.0
 30
0.0
  9
$UCSYDIR
 10
0.0
 20
1.0
 30
0.0
  9
$PUCSNAME
  2

  9
$PUCSORG
 10
0.0
 20
0.0
 30
0.0
  9
$PUCSXDIR
 10
1.0
 20
0.0
 30
0.0
  9
$PUCSYDIR
 10
0.0
 20
1.0
 30
0.0
  9
$USERI1
 70
     0
  9
$USERI2
 70
     0
  9
$USERI3
 70
     0
  9
$USERI4
 70
     0
  9
$USERI5
 70
     0
  9
$USERR1
 40
0.0
  9
$USERR2
 40
0.0
  9
$USERR3
 40
0.0
  9
$USERR4
 40
0.0
  9
$USERR5
 40
0.0
  9
$WORLDVIEW
 70
     1
  9
$SHADEDGE
 70
     3
  9
$SHADEDIF
 70
    70
  9
$TILEMODE
 70
     1
  9
$MAXACTVP
 70
    48
  9
$PLIMCHECK
 70
     0
  9
$PEXTMIN
 10
0.0
 20
0.0
 30
0.0
  9
$PEXTMAX
 10
0.0
 20
0.0
 30
0.0
  9
$PLIMMIN
 10
0.0
 20
0.0
  9
$PLIMMAX
 10
12.0
 20
9.0
  9
$UNITMODE
 70
     0
  9
$VISRETAIN
 70
     1
  9
$PLINEGEN
 70
     0
  9
$PSLTSCALE
 70
     1
  0
ENDSEC
  0
SECTION
  2
TABLES
  0
TABLE
  2
VPORT
 70
     1
  0
VPORT
  2
*ACTIVE
 70
     0
 10
0.0
 20
0.0
 11
1.0
 21
1.0
 12
-0.1065747739266722
 22
-3.0147447672796259
 13
0.0
 23
0.0
 14
10.0
 24
10.0
 15
10.0
 25
10.0
 16
0.0
 26
0.0
 36
1.0
 17
0.5953187851583887
 27
15.512999149770261
 37
6.0631576616392344
 40
25.172334173276312
 41
2.186619718309859
 42
50.0
 43
0.0
 44
0.0
 50
0.0
 51
0.0
 71
     0
 72
  1000
 73
     1
 74
     3
 75
     0
 76
     0
 77
     0
 78
     0
  0
ENDTAB
  0
TABLE
  2
LTYPE
 70
     2
  0
LTYPE
  2
CONTINUOUS
 70
     0
  3
Solid line
 72
    65
 73
     0
 40
0.0
  0
ENDTAB
  0
TABLE
  2
LAYER
 70
     5
  0
LAYER
  2
0
 70
     0
 62
     7
  6
CONTINUOUS
  0
LAYER
  2
CROMAT
 70
     0
 62
    30
  6
CONTINUOUS
  0
LAYER
  2
SIMPLE
 70
     0
 62
     7
  6
CONTINUOUS
  0
LAYER
  2
PULSADOR
 70
     0
 62
     7
  6
CONTINUOUS
  0
LAYER
  2
LOGO_ROCA
 70
     0
 62
     5
  6
CONTINUOUS
  0
ENDTAB
  0
TABLE
  2
STYLE
 70
     1
  0
STYLE
  2
STANDARD
 70
     0
 40
0.0
 41
1.0
 50
0.0
 71
     0
 42
2.5
  3
txt
  4

  0
ENDTAB
  0
TABLE
  2
VIEW
 70
     0
  0
ENDTAB
  0
TABLE
  2
UCS
 70
     0
  0
ENDTAB
  0
TABLE
  2
APPID
 70
     9
  0
APPID
  2
ACAD
 70
     0
  0
APPID
  2
ACAD_PSEXT
 70
     0
  0
APPID
  2
AVE_ENTITY_MATERIAL
 70
     0
  0
APPID
  2
ACAD_EXEMPT_FROM_CAD_STANDARDS
 70
     0
  0
APPID
  2
ACAECLAYERSTANDARD
 70
     0
  0
APPID
  2
AVE_RENDER
 70
     0
  0
APPID
  2
AVE_FINISH
 70
     0
  0
APPID
  2
AVE_MATERIAL
 70
     0
  0
APPID
  2
AVE_GLOBAL
 70
     0
  0
ENDTAB
  0
TABLE
  2
DIMSTYLE
 70
     2
  0
DIMSTYLE
  2
STANDARD
 70
     0
  3

  4

  5

  6

  7

 40
1.0
 41
0.18
 42
0.0625
 43
0.38
 44
0.18
 45
0.0
 46
0.0
 47
0.0
 48
0.0
140
0.18
141
0.09
142
0.0
143
25.399999999999999
144
1.0
145
0.0
146
1.0
147
0.09
 71
     0
 72
     0
 73
     1
 74
     1
 75
     0
 76
     0
 77
     0
 78
     0
170
     0
171
     2
172
     0
173
     0
174
     0
175
     0
176
     0
177
     0
178
     0
  0
ENDTAB
  0
ENDSEC
  0
SECTION
  2
BLOCKS
  0
BLOCK
  8
0
  2
$MODEL_SPACE
 70
     0
 10
0.0
 20
0.0
 30
0.0
  3
$MODEL_SPACE
  1

  0
ENDBLK
  5
21
  8
0
  0
BLOCK
 67
     1
  8
0
  2
$PAPER_SPACE
 70
     0
 10
0.0
 20
0.0
 30
0.0
  3
$PAPER_SPACE
  1

  0
ENDBLK
  5
D5
 67
     1
  8
0
  0
ENDSEC
  0
SECTION
  2
ENTITIES
  0
POLYLINE
  5
1511AC
  8
CROMAT
 66
     1
 10
0.0
 20
0.0
 30
0.0
 70
    16
 71
     7
 72
     7
  0
VERTEX
  5
1511AD
  8
CROMAT
 10
0.7504363195998676
 20
0.0565467714066497
 30
0.0065490698515385
 70
    64
  0
VERTEX
  5
1511AE
  8
CROMAT
 10
0.7633772718549939
 20
0.0565467714066497
 30
0.0082527785370851
 70
    64
  0
VERTEX
  5
1511AF
  8
CROMAT
 10
0.775436319599868
 20
0.0565467714066497
 30
0.0132477996623165
 70
    64
  0
VERTEX
  5
1511B0
  8
CROMAT
 10
0.7857916586591954
 20
0.0565467714066497
 30
0.0211937307922111
 70
    64
  0
VERTEX
  5
1511B1
  8
CROMAT
 10
0.7937375897890899
 20
0.0565467714066497
 30
0.0315490698515385
 70
    64
  0
VERTEX
  5
1511B2
  8
CROMAT
 10
0.7987326109143214
 20
0.0565467714066497
 30
0.0436081175964125
 70
    64
  0
VERTEX
  5
1511B3
  8
CROMAT
 10
0.8004363195998676
 20
0.0565467714066497
 30
0.0565490698515385
 70
    64
  0
VERTEX
  5
1511B4
  8
CROMAT
 10
0.7504363195998676
 20
0.0565467714066497
 30
0.0065490698515385
 70
    64
  0
VERTEX
  5
1511B5
  8
CROMAT
 10
0.7629363195998679
 20
0.0531974065012606
 30
0.0082527785370851
 70
    64
  0
VERTEX
  5
1511B6
  8
CROMAT
 10
0.7745844652570946
 20
0.0500762952790866
 30
0.0132477996623165
 70
    64
  0
VERTEX
  5
1511B7
  8
CROMAT
 10
0.7845869546944789
 20
0.0473961363120387
 30
0.0211937307922111
 70
    64
  0
VERTEX
  5
1511B8
  8
CROMAT
 10
0.7922621347867583
 20
0.0453395780045489
 30
0.0315490698515385
 70
    64
  0
VERTEX
  5
1511B9
  8
CROMAT
 10
0.7970869546944788
 20
0.0440467714066496
 30
0.0436081175964125
 70
    64
  0
VERTEX
  5
1511BA
  8
CROMAT
 10
0.798732610914321
 20
0.0436058191515237
 30
0.0565490698515385
 70
    64
  0
VERTEX
  5
1511BB
  8
CROMAT
 10
0.7504363195998676
 20
0.0565467714066498
 30
0.0065490698515385
 70
    64
  0
VERTEX
  5
1511BC
  8
CROMAT
 10
0.7616435130019685
 20
0.0500762952790867
 30
0.0082527785370851
 70
    64
  0
VERTEX
  5
1511BD
  8
CROMAT
 10
0.7720869546944789
 20
0.0440467714066496
 30
0.0132477996623165
 70
    64
  0
VERTEX
  5
1511BE
  8
CROMAT
 10
0.7810549413846577
 20
0.0388691018769859
 30
0.0211937307922111
 70
    64
  0
VERTEX
  5
1511BF
  8
CROMAT
 10
0.7879363195998681
 20
0.0348961363120386
 30
0.0315490698515385
 70
    64
  0
VERTEX
  5
1511C0
  8
CROMAT
 10
0.7922621347867586
 20
0.0323986257494229
 30
0.0436081175964125
 70
    64
  0
VERTEX
  5
1511C1
  8
CROMAT
 10
0.7937375897890897
 20
0.0315467714066498
 30
0.0565490698515385
 70
    64
  0
VERTEX
  5
1511C2
  8
CROMAT
 10
0.7504363195998676
 20
0.0565467714066499
 30
0.0065490698515385
 70
    64
  0
VERTEX
  5
1511C3
  8
CROMAT
 10
0.7595869546944787
 20
0.0473961363120386
 30
0.0082527785370851
 70
    64
  0
VERTEX
  5
1511C4
  8
CROMAT
 10
0.7681139891295317
 20
0.0388691018769858
 30
0.0132477996623165
 70
    64
  0
VERTEX
  5
1511C5
  8
CROMAT
 10
0.775436319599868
 20
0.0315467714066495
 30
0.0211937307922111
 70
    64
  0
VERTEX
  5
1511C6
  8
CROMAT
 10
0.7810549413846577
 20
0.0259281496218598
 30
0.0315490698515385
 70
    64
  0
VERTEX
  5
1511C7
  8
CROMAT
 10
0.7845869546944789
 20
0.0223961363120386
 30
0.0436081175964125
 70
    64
  0
VERTEX
  5
1511C8
  8
CROMAT
 10
0.7857916586591952
 20
0.0211914323473224
 30
0.0565490698515385
 70
    64
  0
VERTEX
  5
1511C9
  8
CROMAT
 10
0.7504363195998676
 20
0.0565467714066497
 30
0.0065490698515385
 70
    64
  0
VERTEX
  5
1511CA
  8
CROMAT
 10
0.756906795727431
 20
0.0453395780045489
 30
0.0082527785370851
 70
    64
  0
VERTEX
  5
1511CB
  8
CROMAT
 10
0.7629363195998679
 20
0.0348961363120386
 30
0.0132477996623165
 70
    64
  0
VERTEX
  5
1511CC
  8
CROMAT
 10
0.7681139891295317
 20
0.0259281496218598
 30
0.0211937307922111
 70
    64
  0
VERTEX
  5
1511CD
  8
CROMAT
 10
0.7720869546944789
 20
0.0190467714066494
 30
0.0315490698515385
 70
    64
  0
VERTEX
  5
1511CE
  8
CROMAT
 10
0.7745844652570946
 20
0.014720956219759
 30
0.0436081175964125
 70
    64
  0
VERTEX
  5
1511CF
  8
CROMAT
 10
0.7754363195998677
 20
0.0132455012174277
 30
0.0565490698515385
 70
    64
  0
VERTEX
  5
1511D0
  8
CROMAT
 10
0.7504363195998679
 20
0.0565467714066499
 30
0.0065490698515385
 70
    64
  0
VERTEX
  5
1511D1
  8
CROMAT
 10
0.7537856845052569
 20
0.0440467714066497
 30
0.0082527785370851
 70
    64
  0
VERTEX
  5
1511D2
  8
CROMAT
 10
0.756906795727431
 20
0.0323986257494229
 30
0.0132477996623165
 70
    64
  0
VERTEX
  5
1511D3
  8
CROMAT
 10
0.7595869546944787
 20
0.0223961363120386
 30
0.0211937307922111
 70
    64
  0
VERTEX
  5
1511D4
  8
CROMAT
 10
0.7616435130019685
 20
0.0147209562197592
 30
0.0315490698515385
 70
    64
  0
VERTEX
  5
1511D5
  8
CROMAT
 10
0.7629363195998679
 20
0.0098961363120387
 30
0.0436081175964125
 70
    64
  0
VERTEX
  5
1511D6
  8
CROMAT
 10
0.7633772718549939
 20
0.0082504800921965
 30
0.0565490698515385
 70
    64
  0
VERTEX
  5
1511D7
  8
CROMAT
 10
0.7504363195998679
 20
0.0565467714066499
 30
0.0065490698515385
 70
    64
  0
VERTEX
  5
1511D8
  8
CROMAT
 10
0.7504363195998679
 20
0.0436058191515236
 30
0.0082527785370851
 70
    64
  0
VERTEX
  5
1511D9
  8
CROMAT
 10
0.7504363195998679
 20
0.0315467714066495
 30
0.0132477996623165
 70
    64
  0
VERTEX
  5
1511DA
  8
CROMAT
 10
0.7504363195998679
 20
0.0211914323473221
 30
0.0211937307922111
 70
    64
  0
VERTEX
  5
1511DB
  8
CROMAT
 10
0.7504363195998679
 20
0.0132455012174275
 30
0.0315490698515385
 70
    64
  0
VERTEX
  5
1511DC
  8
CROMAT
 10
0.7504363195998679
 20
0.0082504800921961
 30
0.0436081175964125
 70
    64
  0
VERTEX
  5
1511DD
  8
CROMAT
 10
0.7504363195998679
 20
0.0065467714066498
 30
0.0565490698515385
 70
    64
  0
SEQEND
  5
1511DE
  8
CROMAT
  0
POLYLINE
  5
1511DF
  8
CROMAT
 66
     1
 10
0.0
 20
0.0
 30
0.0
 70
    16
 71
     2
 72
     7
  0
VERTEX
  5
1511E0
  8
CROMAT
 10
0.7504363195998679
 20
0.0065467714066497
 30
0.0565490698515385
 70
    64
  0
VERTEX
  5
1511E1
  8
CROMAT
 10
0.7504363195998679
 20
0.0082504800921963
 30
0.0436081175964124
 70
    64
  0
VERTEX
  5
1511E2
  8
CROMAT
 10
0.7504363195998679
 20
0.0132455012174278
 30
0.0315490698515385
 70
    64
  0
VERTEX
  5
1511E3
  8
CROMAT
 10
0.7504363195998679
 20
0.0211914323473223
 30
0.0211937307922111
 70
    64
  0
VERTEX
  5
1511E4
  8
CROMAT
 10
0.7504363195998679
 20
0.0315467714066497
 30
0.0132477996623166
 70
    64
  0
VERTEX
  5
1511E5
  8
CROMAT
 10
0.7504363195998679
 20
0.0436058191515237
 30
0.0082527785370851
 70
    64
  0
VERTEX
  5
1511E6
  8
CROMAT
 10
0.7504363195998679
 20
0.0565467714066497
 30
0.0065490698515385
 70
    64
  0
VERTEX
  5
1511E7
  8
CROMAT
 10
-0.0000000072615137
 20
-0.0000000120406174
 30
0.0499977087675542
 70
    64
  0
VERTEX
  5
1511E8
  8
CROMAT
 10
-0.0000000072615137
 20
0.0017035264549333
 30
0.0370573055151775
 70
    64
  0
VERTEX
  5
1511E9
  8
CROMAT
 10
-0.0000000072615137
 20
0.0066982769711264
 30
0.0249987588771728
 70
    64
  0
VERTEX
  5
1511EA
  8
CROMAT
 10
-0.0000000072615137
 20
0.0146438478226645
 30
0.0146438574491952
 70
    64
  0
VERTEX
  5
1511EB
  8
CROMAT
 10
-0.0000000072615137
 20
0.0249987492506422
 30
0.0066982865976572
 70
    64
  0
VERTEX
  5
1511EC
  8
CROMAT
 10
-0.0000000072615137
 20
0.0370572958886468
 30
0.0017035360814641
 70
    64
  0
VERTEX
  5
1511ED
  8
CROMAT
 10
-0.0000000072615137
 20
0.0499976991410236
 30
-0.0000000024140865
 70
    64
  0
SEQEND
  5
1511EE
  8
CROMAT
  0
POLYLINE
  5
1511EF
  8
CROMAT
 66
     1
 10
0.0
 20
0.0
 30
0.0
 70
    16
 71
     7
 72
     7
  0
VERTEX
  5
1511F0
  8
CROMAT
 10
0.7504363195998676
 20
0.0565467714066497
 30
15.98995971438279
 70
    64
  0
VERTEX
  5
1511F1
  8
CROMAT
 10
0.7633772718549939
 20
0.0565467714066497
 30
15.98825600569724
 70
    64
  0
VERTEX
  5
1511F2
  8
CROMAT
 10
0.775436319599868
 20
0.0565467714066497
 30
15.983260984572009
 70
    64
  0
VERTEX
  5
1511F3
  8
CROMAT
 10
0.7857916586591954
 20
0.0565467714066497
 30
15.97531505344212
 70
    64
  0
VERTEX
  5
1511F4
  8
CROMAT
 10
0.7937375897890899
 20
0.0565467714066497
 30
15.96495971438279
 70
    64
  0
VERTEX
  5
1511F5
  8
CROMAT
 10
0.7987326109143214
 20
0.0565467714066497
 30
15.952900666637911
 70
    64
  0
VERTEX
  5
1511F6
  8
CROMAT
 10
0.8004363195998676
 20
0.0565467714066497
 30
15.93995971438278
 70
    64
  0
VERTEX
  5
1511F7
  8
CROMAT
 10
0.7504363195998676
 20
0.0565467714066497
 30
15.98995971438279
 70
    64
  0
VERTEX
  5
1511F8
  8
CROMAT
 10
0.7629363195998679
 20
0.0531974065012606
 30
15.98825600569724
 70
    64
  0
VERTEX
  5
1511F9
  8
CROMAT
 10
0.7745844652570946
 20
0.0500762952790866
 30
15.983260984572009
 70
    64
  0
VERTEX
  5
1511FA
  8
CROMAT
 10
0.7845869546944789
 20
0.0473961363120387
 30
15.97531505344212
 70
    64
  0
VERTEX
  5
1511FB
  8
CROMAT
 10
0.7922621347867583
 20
0.0453395780045489
 30
15.96495971438279
 70
    64
  0
VERTEX
  5
1511FC
  8
CROMAT
 10
0.7970869546944788
 20
0.0440467714066496
 30
15.952900666637911
 70
    64
  0
VERTEX
  5
1511FD
  8
CROMAT
 10
0.798732610914321
 20
0.0436058191515237
 30
15.93995971438278
 70
    64
  0
VERTEX
  5
1511FE
  8
CROMAT
 10
0.7504363195998676
 20
0.0565467714066498
 30
15.98995971438279
 70
    64
  0
VERTEX
  5
1511FF
  8
CROMAT
 10
0.7616435130019685
 20
0.0500762952790867
 30
15.98825600569724
 70
    64
  0
VERTEX
  5
151200
  8
CROMAT
 10
0.7720869546944789
 20
0.0440467714066496
 30
15.983260984572009
 70
    64
  0
VERTEX
  5
151201
  8
CROMAT
 10
0.7810549413846577
 20
0.0388691018769859
 30
15.97531505344212
 70
    64
  0
VERTEX
  5
151202
  8
CROMAT
 10
0.7879363195998681
 20
0.0348961363120386
 30
15.96495971438279
 70
    64
  0
VERTEX
  5
151203
  8
CROMAT
 10
0.7922621347867586
 20
0.0323986257494229
 30
15.952900666637911
 70
    64
  0
VERTEX
  5
151204
  8
CROMAT
 10
0.7937375897890897
 20
0.0315467714066498
 30
15.93995971438278
 70
    64
  0
VERTEX
  5
151205
  8
CROMAT
 10
0.7504363195998676
 20
0.0565467714066499
 30
15.98995971438279
 70
    64
  0
VERTEX
  5
151206
  8
CROMAT
 10
0.7595869546944787
 20
0.0473961363120386
 30
15.98825600569724
 70
    64
  0
VERTEX
  5
151207
  8
CROMAT
 10
0.7681139891295317
 20
0.0388691018769858
 30
15.983260984572009
 70
    64
  0
VERTEX
  5
151208
  8
CROMAT
 10
0.775436319599868
 20
0.0315467714066495
 30
15.97531505344212
 70
    64
  0
VERTEX
  5
151209
  8
CROMAT
 10
0.7810549413846577
 20
0.0259281496218598
 30
15.96495971438279
 70
    64
  0
VERTEX
  5
15120A
  8
CROMAT
 10
0.7845869546944789
 20
0.0223961363120386
 30
15.952900666637911
 70
    64
  0
VERTEX
  5
15120B
  8
CROMAT
 10
0.7857916586591952
 20
0.0211914323473224
 30
15.93995971438278
 70
    64
  0
VERTEX
  5
15120C
  8
CROMAT
 10
0.7504363195998676
 20
0.0565467714066497
 30
15.98995971438279
 70
    64
  0
VERTEX
  5
15120D
  8
CROMAT
 10
0.756906795727431
 20
0.0453395780045489
 30
15.98825600569724
 70
    64
  0
VERTEX
  5
15120E
  8
CROMAT
 10
0.7629363195998679
 20
0.0348961363120386
 30
15.983260984572009
 70
    64
  0
VERTEX
  5
15120F
  8
CROMAT
 10
0.7681139891295317
 20
0.0259281496218598
 30
15.97531505344212
 70
    64
  0
VERTEX
  5
151210
  8
CROMAT
 10
0.7720869546944789
 20
0.0190467714066494
 30
15.96495971438279
 70
    64
  0
VERTEX
  5
151211
  8
CROMAT
 10
0.7745844652570946
 20
0.014720956219759
 30
15.952900666637911
 70
    64
  0
VERTEX
  5
151212
  8
CROMAT
 10
0.7754363195998677
 20
0.0132455012174277
 30
15.93995971438278
 70
    64
  0
VERTEX
  5
151213
  8
CROMAT
 10
0.7504363195998679
 20
0.0565467714066499
 30
15.98995971438279
 70
    64
  0
VERTEX
  5
151214
  8
CROMAT
 10
0.7537856845052569
 20
0.0440467714066497
 30
15.98825600569724
 70
    64
  0
VERTEX
  5
151215
  8
CROMAT
 10
0.756906795727431
 20
0.0323986257494229
 30
15.983260984572009
 70
    64
  0
VERTEX
  5
151216
  8
CROMAT
 10
0.7595869546944787
 20
0.0223961363120386
 30
15.97531505344212
 70
    64
  0
VERTEX
  5
151217
  8
CROMAT
 10
0.7616435130019685
 20
0.0147209562197592
 30
15.96495971438279
 70
    64
  0
VERTEX
  5
151218
  8
CROMAT
 10
0.7629363195998679
 20
0.0098961363120387
 30
15.952900666637911
 70
    64
  0
VERTEX
  5
151219
  8
CROMAT
 10
0.7633772718549939
 20
0.0082504800921965
 30
15.93995971438278
 70
    64
  0
VERTEX
  5
15121A
  8
CROMAT
 10
0.7504363195998679
 20
0.0565467714066499
 30
15.98995971438279
 70
    64
  0
VERTEX
  5
15121B
  8
CROMAT
 10
0.7504363195998679
 20
0.0436058191515236
 30
15.98825600569724
 70
    64
  0
VERTEX
  5
15121C
  8
CROMAT
 10
0.7504363195998679
 20
0.0315467714066495
 30
15.983260984572009
 70
    64
  0
VERTEX
  5
15121D
  8
CROMAT
 10
0.7504363195998679
 20
0.0211914323473221
 30
15.97531505344212
 70
    64
  0
VERTEX
  5
15121E
  8
CROMAT
 10
0.7504363195998679
 20
0.0132455012174275
 30
15.96495971438279
 70
    64
  0
VERTEX
  5
15121F
  8
CROMAT
 10
0.7504363195998679
 20
0.0082504800921961
 30
15.952900666637911
 70
    64
  0
VERTEX
  5
151220
  8
CROMAT
 10
0.7504363195998679
 20
0.0065467714066498
 30
15.93995971438278
 70
    64
  0
SEQEND
  5
151221
  8
CROMAT
  0
POLYLINE
  5
151222
  8
CROMAT
 66
     1
 10
0.0
 20
0.0
 30
0.0
 70
    16
 71
     2
 72
     7
  0
VERTEX
  5
151223
  8
CROMAT
 10
0.7504363195998679
 20
0.0065467714066497
 30
15.93995971438278
 70
    64
  0
VERTEX
  5
151224
  8
CROMAT
 10
0.7504363195998679
 20
0.0082504800921963
 30
15.952900666637911
 70
    64
  0
VERTEX
  5
151225
  8
CROMAT
 10
0.7504363195998679
 20
0.0132455012174278
 30
15.96495971438279
 70
    64
  0
VERTEX
  5
151226
  8
CROMAT
 10
0.7504363195998679
 20
0.0211914323473223
 30
15.97531505344212
 70
    64
  0
VERTEX
  5
151227
  8
CROMAT
 10
0.7504363195998679
 20
0.0315467714066497
 30
15.983260984572009
 70
    64
  0
VERTEX
  5
151228
  8
CROMAT
 10
0.7504363195998679
 20
0.0436058191515237
 30
15.98825600569724
 70
    64
  0
VERTEX
  5
151229
  8
CROMAT
 10
0.7504363195998679
 20
0.0565467714066497
 30
15.98995971438279
 70
    64
  0
VERTEX
  5
15122A
  8
CROMAT
 10
-0.0000000072615137
 20
-0.0000000120406174
 30
15.94651107546677
 70
    64
  0
VERTEX
  5
15122B
  8
CROMAT
 10
-0.0000000072615137
 20
0.0017035264549333
 30
15.959451478719149
 70
    64
  0
VERTEX
  5
15122C
  8
CROMAT
 10
-0.0000000072615137
 20
0.0066982769711264
 30
15.97151002535715
 70
    64
  0
VERTEX
  5
15122D
  8
CROMAT
 10
-0.0000000072615137
 20
0.0146438478226645
 30
15.98186492678513
 70
    64
  0
VERTEX
  5
15122E
  8
CROMAT
 10
-0.0000000072615137
 20
0.0249987492506422
 30
15.98981049763667
 70
    64
  0
VERTEX
  5
15122F
  8
CROMAT
 10
-0.0000000072615137
 20
0.0370572958886468
 30
15.99480524815286
 70
    64
  0
VERTEX
  5
151230
  8
CROMAT
 10
-0.0000000072615137
 20
0.0499976991410236
 30
15.996508786648411
 70
    64
  0
SEQEND
  5
151231
  8
CROMAT
  0
3DFACE
  5
151232
  8
CROMAT
 10
0.7504363195998679
 20
0.0065467714066497
 30
15.93995971438278
 11
-0.0000000072615137
 21
-0.0000000120406174
 31
15.94651107546677
 12
-0.0000000072615137
 22
-0.0000000120406174
 32
0.0499977087675542
 13
0.7504363195998679
 23
0.0065490602250087
 33
0.0565467810331792
  0
POLYLINE
  5
151233
  8
CROMAT
 66
     1
 10
0.0
 20
0.0
 30
0.0
 70
    16
 71
     2
 72
     7
  0
VERTEX
  5
151234
  8
CROMAT
 10
0.8004363195998676
 20
0.0565467714066497
 30
0.0565490698515385
 70
    64
  0
VERTEX
  5
151235
  8
CROMAT
 10
0.7987326109143214
 20
0.0565467714066497
 30
0.0436081175964125
 70
    64
  0
VERTEX
  5
151236
  8
CROMAT
 10
0.7937375897890899
 20
0.0565467714066497
 30
0.0315490698515385
 70
    64
  0
VERTEX
  5
151237
  8
CROMAT
 10
0.7857916586591954
 20
0.0565467714066497
 30
0.0211937307922111
 70
    64
  0
VERTEX
  5
151238
  8
CROMAT
 10
0.775436319599868
 20
0.0565467714066497
 30
0.0132477996623165
 70
    64
  0
VERTEX
  5
151239
  8
CROMAT
 10
0.7633772718549939
 20
0.0565467714066497
 30
0.0082527785370851
 70
    64
  0
VERTEX
  5
15123A
  8
CROMAT
 10
0.7504363195998676
 20
0.0565467714066497
 30
0.0065490698515385
 70
    64
  0
VERTEX
  5
15123B
  8
CROMAT
 10
0.8004363195998676
 20
24.93996199357462
 30
0.0565490698515385
 70
    64
  0
VERTEX
  5
15123C
  8
CROMAT
 10
0.7987326109143214
 20
24.93996199357462
 30
0.0436081175964125
 70
    64
  0
VERTEX
  5
15123D
  8
CROMAT
 10
0.7937375897890899
 20
24.93996199357462
 30
0.0315490698515384
 70
    64
  0
VERTEX
  5
15123E
  8
CROMAT
 10
0.7857916586591954
 20
24.93996199357462
 30
0.0211937307922111
 70
    64
  0
VERTEX
  5
15123F
  8
CROMAT
 10
0.775436319599868
 20
24.93996199357462
 30
0.0132477996623165
 70
    64
  0
VERTEX
  5
151240
  8
CROMAT
 10
0.7633772718549939
 20
24.93996199357462
 30
0.0082527785370851
 70
    64
  0
VERTEX
  5
151241
  8
CROMAT
 10
0.7504363195998676
 20
24.93996199357462
 30
0.0065490698515385
 70
    64
  0
SEQEND
  5
151242
  8
CROMAT
  0
POLYLINE
  5
151243
  8
CROMAT
 66
     1
 10
0.0
 20
0.0
 30
0.0
 70
    16
 71
     2
 72
     7
  0
VERTEX
  5
151244
  8
CROMAT
 10
0.7504363195998676
 20
0.0565467714066497
 30
15.98995971438279
 70
    64
  0
VERTEX
  5
151245
  8
CROMAT
 10
0.763377271854994
 20
0.0565467714066497
 30
15.98825600569724
 70
    64
  0
VERTEX
  5
151246
  8
CROMAT
 10
0.7754363195998683
 20
0.0565467714066497
 30
15.983260984572009
 70
    64
  0
VERTEX
  5
151247
  8
CROMAT
 10
0.7857916586591955
 20
0.0565467714066497
 30
15.97531505344212
 70
    64
  0
VERTEX
  5
151248
  8
CROMAT
 10
0.7937375897890902
 20
0.0565467714066497
 30
15.96495971438279
 70
    64
  0
VERTEX
  5
151249
  8
CROMAT
 10
0.7987326109143216
 20
0.0565467714066497
 30
15.952900666637911
 70
    64
  0
VERTEX
  5
15124A
  8
CROMAT
 10
0.8004363195998676
 20
0.0565467714066497
 30
15.93995971438278
 70
    64
  0
VERTEX
  5
15124B
  8
CROMAT
 10
0.7504363195998676
 20
24.93996199357462
 30
15.98995971438279
 70
    64
  0
VERTEX
  5
15124C
  8
CROMAT
 10
0.763377271854994
 20
24.93996199357462
 30
15.98825600569724
 70
    64
  0
VERTEX
  5
15124D
  8
CROMAT
 10
0.7754363195998683
 20
24.93996199357462
 30
15.983260984572009
 70
    64
  0
VERTEX
  5
15124E
  8
CROMAT
 10
0.7857916586591955
 20
24.93996199357462
 30
15.97531505344212
 70
    64
  0
VERTEX
  5
15124F
  8
CROMAT
 10
0.7937375897890902
 20
24.93996199357462
 30
15.96495971438279
 70
    64
  0
VERTEX
  5
151250
  8
CROMAT
 10
0.7987326109143216
 20
24.93996199357462
 30
15.952900666637911
 70
    64
  0
VERTEX
  5
151251
  8
CROMAT
 10
0.8004363195998676
 20
24.93996199357462
 30
15.93995971438278
 70
    64
  0
SEQEND
  5
151252
  8
CROMAT
  0
3DFACE
  5
151253
  8
CROMAT
 10
0.7504363195998676
 20
24.93996199357462
 30
15.98995971438279
 11
-0.0000000072615137
 21
24.946511065840252
 31
15.996508786648411
 12
-0.0000000072615137
 22
0.0499976991410236
 32
15.996508786648411
 13
0.7504363195998679
 23
0.0565467714066499
 33
15.98995971438279
  0
3DFACE
  5
151254
  8
CROMAT
 10
-0.0000000072615137
 20
0.0499976991410236
 30
-0.0000000024140865
 11
0.7504363195998679
 21
0.0565467714066499
 31
0.0065490698515385
 12
0.7504363195998676
 22
24.93996199357462
 32
0.0065490698515385
 13
-0.0000000072615137
 23
24.946511065840252
 33
-0.0000000024140865
  0
POLYLINE
  5
151255
  8
CROMAT
 66
     1
 10
0.0
 20
0.0
 30
0.0
 70
    16
 71
    13
 72
    13
  0
VERTEX
  5
151256
  8
CROMAT
 10
0.7999999927313608
 20
3.998254382490634
 30
10.691074750393531
 70
    64
  0
VERTEX
  5
151257
  8
CROMAT
 10
0.8030442164834724
 20
3.9982543824906331
 30
10.621350149570841
 70
    64
  0
VERTEX
  5
151258
  8
CROMAT
 10
0.812153758394141
 20
3.998254382490634
 30
10.55215619387867
 70
    64
  0
VERTEX
  5
151259
  8
CROMAT
 10
0.8272592892805207
 20
3.998254382490634
 30
10.484019491619
 70
    64
  0
VERTEX
  5
15125A
  8
CROMAT
 10
0.8482458468182327
 20
3.998254382490634
 30
10.417458604748919
 70
    64
  0
VERTEX
  5
15125B
  8
CROMAT
 10
0.8749537104749393
 20
3.998254382490634
 30
10.35298010230704
 70
    64
  0
VERTEX
  5
15125C
  8
CROMAT
 10
0.9071796170812266
 20
3.998254382490634
 30
10.291074705113511
 70
    64
  0
VERTEX
  5
15125D
  8
CROMAT
 10
0.9446783077875837
 20
3.998254382490634
 30
10.23221355108455
 70
    64
  0
VERTEX
  5
15125E
  8
CROMAT
 10
0.9871643946341759
 20
3.9982543824906331
 30
10.17684460958494
 70
    64
  0
VERTEX
  5
15125F
  8
CROMAT
 10
1.0343145325276779
 20
3.998254382490634
 30
10.12538927210726
 70
    64
  0
VERTEX
  5
151260
  8
CROMAT
 10
1.0857698800950999
 20
3.998254382490634
 30
10.07823914522502
 70
    64
  0
VERTEX
  5
151261
  8
CROMAT
 10
1.1411388306860011
 20
3.998254382490634
 30
10.035753070227321
 70
    64
  0
VERTEX
  5
151262
  8
CROMAT
 10
1.1999999927384859
 20
3.998254382490634
 30
9.9982543921171612
 70
    64
  0
VERTEX
  5
151263
  8
CROMAT
 10
0.7999999927313604
 20
3.6467683590820492
 30
10.66804049531528
 70
    64
  0
VERTEX
  5
151264
  8
CROMAT
 10
0.803044174850866
 20
3.6496514354207008
 30
10.599536130962109
 70
    64
  0
VERTEX
  5
151265
  8
CROMAT
 10
0.812153682986474
 20
3.6551907826360881
 30
10.531284336196659
 70
    64
  0
VERTEX
  5
151266
  8
CROMAT
 10
0.8272591881262119
 20
3.6628426964308849
 30
10.463854884736691
 70
    64
  0
VERTEX
  5
151267
  8
CROMAT
 10
0.8482457279987434
 20
3.6720636308222838
 30
10.397809662274319
 70
    64
  0
VERTEX
  5
151268
  8
CROMAT
 10
0.8749535820076149
 20
3.6823102758072008
 30
10.333698797554989
 70
    64
  0
VERTEX
  5
151269
  8
CROMAT
 10
0.907179486804145
 20
3.6930396332314341
 30
10.27205688293404
 70
    64
  0
VERTEX
  5
15126A
  8
CROMAT
 10
0.9446781832476913
 20
3.7037090902852681
 30
10.21339931317466
 70
    64
  0
VERTEX
  5
15126B
  8
CROMAT
 10
0.9871642829799542
 20
3.713776490066238
 30
10.15821877035129
 70
    64
  0
VERTEX
  5
15126C
  8
CROMAT
 10
1.0343144404075499
 20
3.7227001986719079
 30
10.106981881610389
 70
    64
  0
VERTEX
  5
15126D
  8
CROMAT
 10
1.0857698135626981
 20
3.7299391683120522
 30
10.060126075225289
 70
    64
  0
VERTEX
  5
15126E
  8
CROMAT
 10
1.141138795113354
 20
3.7349529959598922
 30
10.01805665887213
 70
    64
  0
VERTEX
  5
15126F
  8
CROMAT
 10
1.1999999927381111
 20
3.7372019770959741
 30
9.9811441423632985
 70
    64
  0
VERTEX
  5
151270
  8
CROMAT
 10
0.7999999927313608
 20
3.3012959777432931
 30
10.59932488361955
 70
    64
  0
VERTEX
  5
151271
  8
CROMAT
 10
0.8030440597489565
 20
3.3089794180190042
 30
10.534219681724119
 70
    64
  0
VERTEX
  5
151272
  8
CROMAT
 10
0.8121534745064529
 20
3.3210679471677009
 30
10.46864337146747
 70
    64
  0
VERTEX
  5
151273
  8
CROMAT
 10
0.8272589084643005
 20
3.3366336763673239
 30
10.403276042418209
 70
    64
  0
VERTEX
  5
151274
  8
CROMAT
 10
0.8482453994978003
 20
3.3547493128034329
 30
10.3387903338256
 70
    64
  0
VERTEX
  5
151275
  8
CROMAT
 10
0.8749532268332448
 20
3.3744884520558478
 30
10.275847780384799
 70
    64
  0
VERTEX
  5
151276
  8
CROMAT
 10
0.9071791266263314
 20
3.394925863723663
 30
10.215095242514581
 70
    64
  0
VERTEX
  5
151277
  8
CROMAT
 10
0.9446778389315175
 20
3.415137768114695
 30
10.157161448315261
 70
    64
  0
VERTEX
  5
151278
  8
CROMAT
 10
0.987163974288871
 20
3.434202101893423
 30
10.10265367352471
 70
    64
  0
VERTEX
  5
151279
  8
CROMAT
 10
1.03431418572249
 20
3.4511987706656129
 30
10.052154584739879
 70
    64
  0
VERTEX
  5
15127A
  8
CROMAT
 10
1.0857696296201731
 20
3.4652098865771328
 30
10.00621926992898
 70
    64
  0
VERTEX
  5
15127B
  8
CROMAT
 10
1.14113869676545
 20
3.4753199891185891
 30
9.9653724788338671
 70
    64
  0
VERTEX
  5
15127C
  8
CROMAT
 10
1.1999999927370739
 20
3.480616247455218
 30
9.9301060942648682
 70
    64
  0
VERTEX
  5
15127D
  8
CROMAT
 10
0.7999999927313604
 20
2.9677484412611799
 30
10.48610367330406
 70
    64
  0
VERTEX
  5
15127E
  8
CROMAT
 10
0.8030438858716035
 20
2.9817300618705009
 30
10.426181075457841
 70
    64
  0
VERTEX
  5
15127F
  8
CROMAT
 10
0.8121531595685481
 20
3.001076073487877
 30
10.364778328436829
 70
    64
  0
VERTEX
  5
151280
  8
CROMAT
 10
0.8272584859963059
 20
3.0246147292959651
 30
10.302725334196561
 70
    64
  0
VERTEX
  5
151281
  8
CROMAT
 10
0.848244903251696
 20
3.051175539680969
 30
10.240845205589061
 70
    64
  0
VERTEX
  5
151282
  8
CROMAT
 10
0.8749526902932394
 20
3.0795898889857609
 30
10.17995093644139
 70
    64
  0
VERTEX
  5
151283
  8
CROMAT
 10
0.9071785825279309
 20
3.1086916380001162
 30
10.12084214864627
 70
    64
  0
VERTEX
  5
151284
  8
CROMAT
 10
0.9446773187943186
 20
3.1373177076025001
 30
10.06430194102127
 70
    64
  0
VERTEX
  5
151285
  8
CROMAT
 10
0.9871635079682992
 20
3.1643086391112352
 30
10.01109386391864
 70
    64
  0
VERTEX
  5
151286
  8
CROMAT
 10
1.0343138009854871
 20
3.1885091270801649
 30
9.9619590426109745
 70
    64
  0
VERTEX
  5
151287
  8
CROMAT
 10
1.085769351749549
 20
3.2087685204836549
 30
9.9176134713454225
 70
    64
  0
VERTEX
  5
151288
  8
CROMAT
 10
1.141138548197338
 20
3.2239412884763832
 30
9.8787454986603613
 70
    64
  0
VERTEX
  5
151289
  8
CROMAT
 10
1.1999999927355081
 20
3.232887447182951
 30
9.8460135231028367
 70
    64
  0
VERTEX
  5
15128A
  8
CROMAT
 10
0.7999999927313607
 20
2.6518329124472451
 30
10.33031413510332
 70
    64
  0
VERTEX
  5
15128B
  8
CROMAT
 10
0.8030436679126676
 20
2.6731920914811771
 30
10.276958243188229
 70
    64
  0
VERTEX
  5
15128C
  8
CROMAT
 10
0.8121527647872305
 20
2.7002052075745651
 30
10.220981234468709
 70
    64
  0
VERTEX
  5
15128D
  8
CROMAT
 10
0.8272579564237486
 20
2.7315774246494118
 30
10.16337602662276
 70
    64
  0
VERTEX
  5
15128E
  8
CROMAT
 10
0.8482442811967187
 20
2.7660159926543582
 30
10.105129577072869
 70
    64
  0
VERTEX
  5
15128F
  8
CROMAT
 10
0.8749520177290078
 20
2.8022312709179782
 30
10.04721995959825
 70
    64
  0
VERTEX
  5
151290
  8
CROMAT
 10
0.907177900489092
 20
2.8389377278363139
 30
9.9906135085569936
 70
    64
  0
VERTEX
  5
151291
  8
CROMAT
 10
0.9446766667913514
 20
2.874854909285899
 30
9.9362620524524665
 70
    64
  0
VERTEX
  5
151292
  8
CROMAT
 10
0.9871629234256102
 20
2.9087083683916202
 30
9.8851002578980456
 70
    64
  0
VERTEX
  5
151293
  8
CROMAT
 10
1.034313318709523
 20
2.9392305495728528
 30
9.8380431041943801
 70
    64
  0
VERTEX
  5
151294
  8
CROMAT
 10
1.0857690034328531
 20
2.965161620139332
 30
9.7959835077391162
 70
    64
  0
VERTEX
  5
151295
  8
CROMAT
 10
1.1411383619640709
 20
2.9852502431073811
 30
9.7597901143488315
 70
    64
  0
VERTEX
  5
151296
  8
CROMAT
 10
1.199999992733545
 20
2.9982542853545211
 30
9.7303052762948816
 70
    64
  0
VERTEX
  5
151297
  8
CROMAT
 10
0.7999999927313604
 20
2.358954861768003
 30
10.134621904831089
 70
    64
  0
VERTEX
  5
151298
  8
CROMAT
 10
0.8030434205660101
 20
2.3883540663027731
 30
10.088813793514429
 70
    64
  0
VERTEX
  5
151299
  8
CROMAT
 10
0.8121523167769726
 20
2.4231494528612578
 30
10.03925859963419
 70
    64
  0
VERTEX
  5
15129A
  8
CROMAT
 10
0.8272573554481517
 20
2.4620237680008401
 30
9.9871004681982818
 70
    64
  0
VERTEX
  5
15129B
  8
CROMAT
 10
0.8482435752691607
 20
2.503662784880043
 30
9.9334785245619095
 70
    64
  0
VERTEX
  5
15129C
  8
CROMAT
 10
0.8749512544819577
 20
2.5467567880345401
 30
9.8795244123869832
 70
    64
  0
VERTEX
  5
15129D
  8
CROMAT
 10
0.9071771264899609
 20
2.5900020238166261
 30
9.8263598885416918
 70
    64
  0
VERTEX
  5
15129E
  8
CROMAT
 10
0.9446759268778709
 20
2.632102105458781
 30
9.7750944932446782
 70
    64
  0
VERTEX
  5
15129F
  8
CROMAT
 10
0.9871622600681778
 20
2.6717693620672138
 30
9.7268233131853599
 70
    64
  0
VERTEX
  5
1512A0
  8
CROMAT
 10
1.0343127714075879
 20
2.7077261212780859
 30
9.6826248546444802
 70
    64
  0
VERTEX
  5
1512A1
  8
CROMAT
 10
1.0857686081521081
 20
2.738705915814009
 30
9.6435590428016553
 70
    64
  0
VERTEX
  5
1512A2
  8
CROMAT
 10
1.1411381506207019
 20
2.763454604757603
 30
9.6106653624565013
 70
    64
  0
VERTEX
  5
1512A3
  8
CROMAT
 10
1.1999999927313181
 20
2.7807314010079658
 30
9.5849611543135218
 70
    64
  0
VERTEX
  5
1512A4
  8
CROMAT
 10
0.7999999927313608
 20
2.0941255770799909
 30
9.9023753730373443
 70
    64
  0
VERTEX
  5
1512A5
  8
CROMAT
 10
0.8030431585254914
 20
2.1318123587286579
 30
9.8646896331716007
 70
    64
  0
VERTEX
  5
1512A6
  8
CROMAT
 10
0.8121518421522416
 20
2.1742162428363381
 30
9.8222866756574732
 70
    64
  0
VERTEX
  5
1512A7
  8
CROMAT
 10
0.8272567187710331
 20
2.2200774293408818
 30
9.776426312688681
 70
    64
  0
VERTEX
  5
1512A8
  8
CROMAT
 10
0.8482428274053127
 20
2.2681401412315099
 30
9.7283643332864926
 70
    64
  0
VERTEX
  5
1512A9
  8
CROMAT
 10
0.8749504458934996
 20
2.3171545981587531
 30
9.6793505300129468
 70
    64
  0
VERTEX
  5
1512AA
  8
CROMAT
 10
0.9071763065106818
 20
2.3658789444032431
 30
9.6306267713208502
 70
    64
  0
VERTEX
  5
1512AB
  8
CROMAT
 10
0.9446751430091346
 20
2.4130811165294279
 30
9.5834251342110512
 70
    64
  0
VERTEX
  5
1512AC
  8
CROMAT
 10
0.9871615573033725
 20
2.4575406365092878
 30
9.5389661114086408
 70
    64
  0
VERTEX
  5
1512AD
  8
CROMAT
 10
1.0343121915926661
 20
2.4980503166684711
 30
9.4984569067026605
 70
    64
  0
VERTEX
  5
1512AE
  8
CROMAT
 10
1.0857681893893369
 20
2.5334178634783071
 30
9.4630898314225789
 70
    64
  0
VERTEX
  5
1512AF
  8
CROMAT
 10
1.1411379267222801
 20
2.5624673679871162
 30
9.4340408142556846
 70
    64
  0
VERTEX
  5
1512B0
  8
CROMAT
 10
1.199999992728958
 20
2.5840406715469699
 30
9.4124680357462083
 70
    64
  0
VERTEX
  5
1512B1
  8
CROMAT
 10
0.7999999927313607
 20
1.861876418023632
 30
9.6375483923948835
 70
    64
  0
VERTEX
  5
1512B2
  8
CROMAT
 10
0.8030428964849733
 20
1.907685842602415
 30
9.6081499644687156
 70
    64
  0
VERTEX
  5
1512B3
  8
CROMAT
 10
0.8121513675275124
 20
1.957242229751192
 30
9.5733552552599406
 70
    64
  0
VERTEX
  5
1512B4
  8
CROMAT
 10
0.8272560820939148
 20
2.009401444853145
 30
9.5344815298579952
 70
    64
  0
VERTEX
  5
1512B5
  8
CROMAT
 10
0.8482420795414636
 20
2.0630243727930559
 30
9.4928430266600543
 70
    64
  0
VERTEX
  5
1512B6
  8
CROMAT
 10
0.8749496373050401
 20
2.1169793804011769
 30
9.4497494728381888
 70
    64
  0
VERTEX
  5
1512B7
  8
CROMAT
 10
0.9071754865314032
 20
2.170144721951341
 30
9.4065046341396936
 70
    64
  0
VERTEX
  5
1512B8
  8
CROMAT
 10
0.9446743591403981
 20
2.221410869404822
 30
9.3644049100575089
 70
    64
  0
VERTEX
  5
1512B9
  8
CROMAT
 10
0.9871608545385658
 20
2.2696827496642409
 30
9.3247379850623098
 70
    64
  0
VERTEX
  5
1512BA
  8
CROMAT
 10
1.034311611777744
 20
2.3138818718095928
 30
9.2887815461612711
 70
    64
  0
VERTEX
  5
1512BB
  8
CROMAT
 10
1.085767770626568
 20
2.352948328125791
 30
9.2578020765436513
 70
    64
  0
VERTEX
  5
1512BC
  8
CROMAT
 10
1.141137702823859
 20
2.3858426536917161
 30
9.2330537344942627
 70
    64
  0
VERTEX
  5
1512BD
  8
CROMAT
 10
1.1999999927265981
 20
2.4115475303772831
 30
9.2157773261069522
 70
    64
  0
VERTEX
  5
1512BE
  8
CROMAT
 10
0.7999999927313607
 20
1.6661812822254991
 30
9.3446722831207722
 70
    64
  0
VERTEX
  5
1512BF
  8
CROMAT
 10
0.8030426491383162
 20
1.7195387519605509
 30
9.3233136349443804
 70
    64
  0
VERTEX
  5
1512C0
  8
CROMAT
 10
0.8121509195172539
 20
1.775517228621796
 30
9.2963009735227011
 70
    64
  0
VERTEX
  5
1512C1
  8
CROMAT
 10
0.8272554811183175
 20
1.833123800349405
 30
9.2649291445157864
 70
    64
  0
VERTEX
  5
1512C2
  8
CROMAT
 10
0.8482413736139058
 20
1.891371515359658
 30
9.2304909074942572
 70
    64
  0
VERTEX
  5
1512C3
  8
CROMAT
 10
0.8749488740579912
 20
1.9492823058115121
 30
9.1942759127535822
 70
    64
  0
VERTEX
  5
1512C4
  8
CROMAT
 10
0.9071747125322712
 20
2.0058898440566728
 30
9.1575697017918358
 70
    64
  0
VERTEX
  5
1512C5
  8
CROMAT
 10
0.9446736192269185
 20
2.060242309533971
 30
9.1216527390579412
 70
    64
  0
VERTEX
  5
1512C6
  8
CROMAT
 10
0.9871601911811326
 20
2.1114050452489619
 30
9.0877994823393351
 70
    64
  0
VERTEX
  5
1512C7
  8
CROMAT
 10
1.034311064475808
 20
2.1584630836200369
 30
9.0572774988639821
 70
    64
  0
VERTEX
  5
1512C8
  8
CROMAT
 10
1.085767375345823
 20
2.2005235224666011
 30
9.0313466338438104
 70
    64
  0
VERTEX
  5
1512C9
  8
CROMAT
 10
1.141137491480491
 20
2.23671773305544
 30
9.0112582377873593
 70
    64
  0
VERTEX
  5
1512CA
  8
CROMAT
 10
1.1999999927243701
 20
2.2662033833996622
 30
8.9982544584623696
 70
    64
  0
VERTEX
  5
1512CB
  8
CROMAT
 10
0.7999999927313608
 20
1.510388609950523
 30
9.0287582998531555
 70
    64
  0
VERTEX
  5
1512CC
  8
CROMAT
 10
0.8030424311793813
 20
1.5703130299340551
 30
9.0147769967708911
 70
    64
  0
VERTEX
  5
1512CD
  8
CROMAT
 10
0.8121505247359364
 20
1.631717517878484
 30
8.9954312525131073
 70
    64
  0
VERTEX
  5
1512CE
  8
CROMAT
 10
0.8272549515457612
 20
1.693772169666665
 30
8.9718928205224273
 70
    64
  0
VERTEX
  5
1512CF
  8
CROMAT
 10
0.8482407515589298
 20
1.755653870080649
 30
8.9453321970000808
 70
    64
  0
VERTEX
  5
1512D0
  8
CROMAT
 10
0.8749482014937592
 20
1.8165496232684439
 30
8.9169180042537732
 70
    64
  0
VERTEX
  5
1512D1
  8
CROMAT
 10
0.9071740304934326
 20
1.875659806191359
 30
8.8878163883070904
 70
    64
  0
VERTEX
  5
1512D2
  8
CROMAT
 10
0.9446729672239506
 20
1.93220132028963
 30
8.8591904353548721
 70
    64
  0
VERTEX
  5
1512D3
  8
CROMAT
 10
0.9871596066384435
 20
1.985410617378716
 30
8.8321996115057981
 70
    64
  0
VERTEX
  5
1512D4
  8
CROMAT
 10
1.0343105821998451
 20
2.0345465767458881
 30
8.8079992300760104
 70
    64
  0
VERTEX
  5
1512D5
  8
CROMAT
 10
1.0857670270291251
 20
2.0788932115492531
 30
8.78773995048806
 70
    64
  0
VERTEX
  5
1512D6
  8
CROMAT
 10
1.141137305247224
 20
2.1177621839205831
 30
8.7725673125887838
 70
    64
  0
VERTEX
  5
1512D7
  8
CROMAT
 10
1.199999992722407
 20
2.1504951096292459
 30
8.7636213099303468
 70
    64
  0
VERTEX
  5
1512D8
  8
CROMAT
 10
0.7999999927313607
 20
1.397164090638042
 30
8.6952118866134889
 70
    64
  0
VERTEX
  5
1512D9
  8
CROMAT
 10
0.8030422573020271
 20
1.4622713253522279
 30
8.6875285958201403
 70
    64
  0
VERTEX
  5
1512DA
  8
CROMAT
 10
0.8121502097980318
 20
1.527849637921868
 30
8.6754401905195664
 70
    64
  0
VERTEX
  5
1512DB
  8
CROMAT
 10
0.8272545290777664
 20
1.5932189246826369
 30
8.6598745630449372
 70
    64
  0
VERTEX
  5
1512DC
  8
CROMAT
 10
0.8482402553128238
 20
1.657706532065335
 30
8.6417590097038364
 70
    64
  0
VERTEX
  5
1512DD
  8
CROMAT
 10
0.8749476649537539
 20
1.720650911429122
 30
8.6220199384395535
 70
    64
  0
VERTEX
  5
1512DE
  8
CROMAT
 10
0.9071734863950325
 20
1.781405189374085
 30
8.6015825832532542
 70
    64
  0
VERTEX
  5
1512DF
  8
CROMAT
 10
0.9446724470867508
 20
1.83934062635922
 30
8.5813707275606248
 70
    64
  0
VERTEX
  5
1512E0
  8
CROMAT
 10
0.9871591403178712
 20
1.893849937301928
 30
8.5623064385883652
 70
    64
  0
VERTEX
  5
1512E1
  8
CROMAT
 10
1.034310197462841
 20
1.9443504488856549
 30
8.5453098148318887
 70
    64
  0
VERTEX
  5
1512E2
  8
CROMAT
 10
1.0857667491585019
 20
1.990287069545114
 30
8.5312987484963188
 70
    64
  0
VERTEX
  5
1512E3
  8
CROMAT
 10
1.141137156679112
 20
2.0311350495242491
 30
8.5211887047286723
 70
    64
  0
VERTEX
  5
1512E4
  8
CROMAT
 10
1.1999999927208409
 20
2.0664025099998962
 30
8.5158925193214365
 70
    64
  0
VERTEX
  5
1512E5
  8
CROMAT
 10
0.7999999927313608
 20
1.328445051641119
 30
8.3497401869940688
 70
    64
  0
VERTEX
  5
1512E6
  8
CROMAT
 10
0.8030421422001172
 20
1.396951612404822
 30
8.346857150103137
 70
    64
  0
VERTEX
  5
1512E7
  8
CROMAT
 10
0.8121500013180103
 20
1.4652056492186769
 30
8.3413178350701251
 70
    64
  0
VERTEX
  5
1512E8
  8
CROMAT
 10
0.8272542494158544
 20
1.5326373578539401
 30
8.3336659472162538
 70
    64
  0
VERTEX
  5
1512E9
  8
CROMAT
 10
0.8482399268118818
 20
1.5986848218700871
 30
8.3244450335434443
 70
    64
  0
VERTEX
  5
1512EA
  8
CROMAT
 10
0.874947309779384
 20
1.662797882169486
 30
8.3141984050818571
 70
    64
  0
VERTEX
  5
1512EB
  8
CROMAT
 10
0.907173126217218
 20
1.7244419170658449
 30
8.3034690610332653
 70
    64
  0
VERTEX
  5
1512EC
  8
CROMAT
 10
0.944672102770578
 20
1.783101504095985
 30
8.2927996152876737
 70
    64
  0
VERTEX
  5
1512ED
  8
CROMAT
 10
0.9871588316267888
 20
1.8382839357045679
 30
8.2827322258723992
 70
    64
  0
VERTEX
  5
1512EE
  8
CROMAT
 10
1.034309942777782
 20
1.8895225620435541
 30
8.2738085278705178
 70
    64
  0
VERTEX
  5
1512EF
  8
CROMAT
 10
1.085766565215978
 20
1.936379935444057
 30
8.2665695703192057
 70
    64
  0
VERTEX
  5
1512F0
  8
CROMAT
 10
1.141137058331207
 20
1.9784507326277141
 30
8.2615557575683845
 70
    64
  0
VERTEX
  5
1512F1
  8
CROMAT
 10
1.1999999927198051
 20
2.0153644324163631
 30
8.2593067955456263
 70
    64
  0
VERTEX
  5
1512F2
  8
CROMAT
 10
0.7999999927313608
 20
1.3054073096002989
 30
7.9982543921171629
 70
    64
  0
VERTEX
  5
1512F3
  8
CROMAT
 10
0.8030421005675115
 20
1.375134209842316
 30
7.9982543921171629
 70
    64
  0
VERTEX
  5
1512F4
  8
CROMAT
 10
0.8121499259103429
 20
1.4443306154929809
 30
7.9982543921171629
 70
    64
  0
VERTEX
  5
1512F5
  8
CROMAT
 10
0.8272541482615466
 20
1.512469866329869
 30
7.998254392117162
 70
    64
  0
VERTEX
  5
1512F6
  8
CROMAT
 10
0.8482398079923914
 20
1.579033348233299
 30
7.9982543921171629
 70
    64
  0
VERTEX
  5
1512F7
  8
CROMAT
 10
0.874947181312059
 20
1.6435144404062041
 30
7.998254392117162
 70
    64
  0
VERTEX
  5
1512F8
  8
CROMAT
 10
0.9071729959401366
 20
1.705422371311734
 30
7.9982543921171629
 70
    64
  0
VERTEX
  5
1512F9
  8
CROMAT
 10
0.9446719782306852
 20
1.7642859539806479
 30
7.9982543921171629
 70
    64
  0
VERTEX
  5
1512FA
  8
CROMAT
 10
0.9871587199725675
 20
1.8196571722587891
 30
7.9982543921171629
 70
    64
  0
VERTEX
  5
1512FB
  8
CROMAT
 10
1.034309850657654
 20
1.871114590699329
 30
7.998254392117162
 70
    64
  0
VERTEX
  5
1512FC
  8
CROMAT
 10
1.085766498683574
 20
1.918266562146804
 30
7.9982543921171647
 70
    64
  0
VERTEX
  5
1512FD
  8
CROMAT
 10
1.14113702275856
 20
1.960754208599724
 30
7.998254392117162
 70
    64
  0
VERTEX
  5
1512FE
  8
CROMAT
 10
1.19999999271943
 20
1.9982541526641191
 30
7.9982543921171629
 70
    64
  0
SEQEND
  5
1512FF
  8
CROMAT
  0
POLYLINE
  5
151300
  8
CROMAT
 66
     1
 10
0.0
 20
0.0
 30
0.0
 70
    16
 71
    13
 72
    13
  0
VERTEX
  5
151301
  8
CROMAT
 10
0.7999999927313608
 20
1.305407309600298
 30
7.9982543921171629
 70
    64
  0
VERTEX
  5
151302
  8
CROMAT
 10
0.8030421005678864
 20
1.3751342098423149
 30
7.9982543921171629
 70
    64
  0
VERTEX
  5
151303
  8
CROMAT
 10
0.8121499259117545
 20
1.44433061549298
 30
7.9982543921171629
 70
    64
  0
VERTEX
  5
151304
  8
CROMAT
 10
0.8272541482645242
 20
1.512469866329869
 30
7.998254392117162
 70
    64
  0
VERTEX
  5
151305
  8
CROMAT
 10
0.8482398079973316
 20
1.5790333482332981
 30
7.9982543921171629
 70
    64
  0
VERTEX
  5
151306
  8
CROMAT
 10
0.8749471813192268
 20
1.6435144404062041
 30
7.998254392117162
 70
    64
  0
VERTEX
  5
151307
  8
CROMAT
 10
0.9071729959496646
 20
1.7054223713117329
 30
7.9982543921171629
 70
    64
  0
VERTEX
  5
151308
  8
CROMAT
 10
0.9446719782425729
 20
1.7642859539806479
 30
7.9982543921171629
 70
    64
  0
VERTEX
  5
151309
  8
CROMAT
 10
0.9871587199866826
 20
1.8196571722587891
 30
7.9982543921171629
 70
    64
  0
VERTEX
  5
15130A
  8
CROMAT
 10
1.034309850673732
 20
1.871114590699329
 30
7.998254392117162
 70
    64
  0
VERTEX
  5
15130B
  8
CROMAT
 10
1.0857664987012181
 20
1.918266562146804
 30
7.9982543921171647
 70
    64
  0
VERTEX
  5
15130C
  8
CROMAT
 10
1.1411370227772411
 20
1.960754208599724
 30
7.998254392117162
 70
    64
  0
VERTEX
  5
15130D
  8
CROMAT
 10
1.1999999927384859
 20
1.9982541526641191
 30
7.9982543921171629
 70
    64
  0
VERTEX
  5
15130E
  8
CROMAT
 10
0.7999999927313608
 20
1.328445051641119
 30
7.646768597240257
 70
    64
  0
VERTEX
  5
15130F
  8
CROMAT
 10
0.8030421422004771
 20
1.396951612404822
 30
7.6496516341311951
 70
    64
  0
VERTEX
  5
151310
  8
CROMAT
 10
0.8121500013193664
 20
1.4652056492186769
 30
7.6551909491642034
 70
    64
  0
VERTEX
  5
151311
  8
CROMAT
 10
0.8272542494187156
 20
1.532637357853939
 30
7.6628428370180748
 70
    64
  0
VERTEX
  5
151312
  8
CROMAT
 10
0.8482399268166274
 20
1.5986848218700871
 30
7.6720637506908851
 70
    64
  0
VERTEX
  5
151313
  8
CROMAT
 10
0.8749473097862702
 20
1.6627978821694871
 30
7.6823103791524714
 70
    64
  0
VERTEX
  5
151314
  8
CROMAT
 10
0.907173126226371
 20
1.724441917065844
 30
7.6930397232010668
 70
    64
  0
VERTEX
  5
151315
  8
CROMAT
 10
0.9446721027819982
 20
1.7831015040959839
 30
7.7037091689466548
 70
    64
  0
VERTEX
  5
151316
  8
CROMAT
 10
0.9871588316403487
 20
1.8382839357045671
 30
7.7137765583619258
 70
    64
  0
VERTEX
  5
151317
  8
CROMAT
 10
1.034309942793227
 20
1.889522562043553
 30
7.7227002563638161
 70
    64
  0
VERTEX
  5
151318
  8
CROMAT
 10
1.0857665652329269
 20
1.936379935444055
 30
7.7299392139151228
 70
    64
  0
VERTEX
  5
151319
  8
CROMAT
 10
1.141137058349152
 20
1.978450732627713
 30
7.7349530266659494
 70
    64
  0
VERTEX
  5
15131A
  8
CROMAT
 10
1.1999999927381111
 20
2.0153644324163631
 30
7.7372019886886996
 70
    64
  0
VERTEX
  5
15131B
  8
CROMAT
 10
0.7999999927313608
 20
1.3971640906380409
 30
7.3012968976208397
 70
    64
  0
VERTEX
  5
15131C
  8
CROMAT
 10
0.8030422573023464
 20
1.462271325352227
 30
7.3089801884141901
 70
    64
  0
VERTEX
  5
15131D
  8
CROMAT
 10
0.812150209799234
 20
1.527849637921868
 30
7.3210685937147613
 70
    64
  0
VERTEX
  5
15131E
  8
CROMAT
 10
0.8272545290803028
 20
1.5932189246826349
 30
7.3366342211893976
 70
    64
  0
VERTEX
  5
15131F
  8
CROMAT
 10
0.8482402553170327
 20
1.657706532065335
 30
7.3547497745304939
 70
    64
  0
VERTEX
  5
151320
  8
CROMAT
 10
0.8749476649598598
 20
1.7206509114291211
 30
7.3744888457947759
 70
    64
  0
VERTEX
  5
151321
  8
CROMAT
 10
0.9071734864031487
 20
1.7814051893740841
 30
7.3949262009810779
 70
    64
  0
VERTEX
  5
151322
  8
CROMAT
 10
0.9446724470968783
 20
1.8393406263592189
 30
7.4151380566737064
 70
    64
  0
VERTEX
  5
151323
  8
CROMAT
 10
0.9871591403298957
 20
1.8938499373019271
 30
7.4342023456459678
 70
    64
  0
VERTEX
  5
151324
  8
CROMAT
 10
1.034310197476537
 20
1.9443504488856549
 30
7.4511989694024434
 70
    64
  0
VERTEX
  5
151325
  8
CROMAT
 10
1.0857667491735321
 20
1.9902870695451129
 30
7.4652100357380098
 70
    64
  0
VERTEX
  5
151326
  8
CROMAT
 10
1.1411371566950259
 20
2.0311350495242482
 30
7.475320079505658
 70
    64
  0
VERTEX
  5
151327
  8
CROMAT
 10
1.199999992737073
 20
2.0664025099998948
 30
7.480616264912892
 70
    64
  0
VERTEX
  5
151328
  8
CROMAT
 10
0.7999999927313608
 20
1.5103886099505219
 30
6.9677504843811739
 70
    64
  0
VERTEX
  5
151329
  8
CROMAT
 10
0.8030424311796384
 20
1.570313029934054
 30
6.9817317874634393
 70
    64
  0
VERTEX
  5
15132A
  8
CROMAT
 10
0.8121505247369075
 20
1.6317175178784831
 30
7.0010775317212222
 70
    64
  0
VERTEX
  5
15132B
  8
CROMAT
 10
0.8272549515478077
 20
1.6937721696666641
 30
7.0246159637119012
 70
    64
  0
VERTEX
  5
15132C
  8
CROMAT
 10
0.8482407515623256
 20
1.7556538700806481
 30
7.0511765872342513
 70
    64
  0
VERTEX
  5
15132D
  8
CROMAT
 10
0.8749482014986869
 20
1.816549623268443
 30
7.0795907799805562
 70
    64
  0
VERTEX
  5
15132E
  8
CROMAT
 10
0.9071740304999826
 20
1.875659806191359
 30
7.108692395927239
 70
    64
  0
VERTEX
  5
15132F
  8
CROMAT
 10
0.9446729672321236
 20
1.9322013202896291
 30
7.1373183488794556
 70
    64
  0
VERTEX
  5
151330
  8
CROMAT
 10
0.9871596066481478
 20
1.985410617378716
 30
7.1643091727285313
 70
    64
  0
VERTEX
  5
151331
  8
CROMAT
 10
1.0343105822108991
 20
2.0345465767458881
 30
7.188509554158319
 70
    64
  0
VERTEX
  5
151332
  8
CROMAT
 10
1.0857670270412549
 20
2.0788932115492531
 30
7.2087688337462721
 70
    64
  0
VERTEX
  5
151333
  8
CROMAT
 10
1.1411373052600671
 20
2.1177621839205818
 30
7.223941471645543
 70
    64
  0
VERTEX
  5
151334
  8
CROMAT
 10
1.1999999927355081
 20
2.1504951096292451
 30
7.232887474303979
 70
    64
  0
VERTEX
  5
151335
  8
CROMAT
 10
0.7999999927313607
 20
1.666181282225498
 30
6.6518365011135581
 70
    64
  0
VERTEX
  5
151336
  8
CROMAT
 10
0.8030426491384968
 20
1.7195387519605501
 30
6.6731951492899526
 70
    64
  0
VERTEX
  5
151337
  8
CROMAT
 10
0.812150919517933
 20
1.7755172286217951
 30
6.7002078107116283
 70
    64
  0
VERTEX
  5
151338
  8
CROMAT
 10
0.8272554811197503
 20
1.8331238003494039
 30
6.731579639718543
 70
    64
  0
VERTEX
  5
151339
  8
CROMAT
 10
0.8482413736162845
 20
1.891371515359656
 30
6.7660178767400714
 70
    64
  0
VERTEX
  5
15133A
  8
CROMAT
 10
0.874948874061442
 20
1.949282305811511
 30
6.8022328714807507
 70
    64
  0
VERTEX
  5
15133B
  8
CROMAT
 10
0.9071747125368592
 20
2.0058898440566719
 30
6.8389390824424972
 70
    64
  0
VERTEX
  5
15133C
  8
CROMAT
 10
0.9446736192326422
 20
2.060242309533971
 30
6.8748560451763883
 70
    64
  0
VERTEX
  5
15133D
  8
CROMAT
 10
0.9871601911879279
 20
2.1114050452489619
 30
6.9087093018949961
 70
    64
  0
VERTEX
  5
15133E
  8
CROMAT
 10
1.0343110644835489
 20
2.1584630836200369
 30
6.9392312853703508
 70
    64
  0
VERTEX
  5
15133F
  8
CROMAT
 10
1.0857673753543171
 20
2.2005235224666002
 30
6.9651621503905208
 70
    64
  0
VERTEX
  5
151340
  8
CROMAT
 10
1.1411374914894841
 20
2.2367177330554409
 30
6.9852505464469656
 70
    64
  0
VERTEX
  5
151341
  8
CROMAT
 10
1.199999992733545
 20
2.2662033833996622
 30
6.9982543257719616
 70
    64
  0
VERTEX
  5
151342
  8
CROMAT
 10
0.7999999927313608
 20
1.86187641802363
 30
6.3589603918394468
 70
    64
  0
VERTEX
  5
151343
  8
CROMAT
 10
0.8030428964850671
 20
1.907685842602413
 30
6.3883588197656129
 70
    64
  0
VERTEX
  5
151344
  8
CROMAT
 10
0.8121513675278627
 20
1.95724222975119
 30
6.4231535289743871
 70
    64
  0
VERTEX
  5
151345
  8
CROMAT
 10
0.8272560820946521
 20
2.0094014448531441
 30
6.4620272543763342
 70
    64
  0
VERTEX
  5
151346
  8
CROMAT
 10
0.8482420795426877
 20
2.0630243727930551
 30
6.5036657575742787
 70
    64
  0
VERTEX
  5
151347
  8
CROMAT
 10
0.8749496373068161
 20
2.1169793804011761
 30
6.5467593113961451
 70
    64
  0
VERTEX
  5
151348
  8
CROMAT
 10
0.9071754865337632
 20
2.1701447219513401
 30
6.5900041500946331
 70
    64
  0
VERTEX
  5
151349
  8
CROMAT
 10
0.9446743591433418
 20
2.2214108694048211
 30
6.6321038741768179
 70
    64
  0
VERTEX
  5
15134A
  8
CROMAT
 10
0.9871608545420617
 20
2.26968274966424
 30
6.6717707991720232
 70
    64
  0
VERTEX
  5
15134B
  8
CROMAT
 10
1.0343116117817259
 20
2.3138818718095919
 30
6.7077272380730548
 70
    64
  0
VERTEX
  5
15134C
  8
CROMAT
 10
1.085767770630937
 20
2.352948328125791
 30
6.7387067076906684
 70
    64
  0
VERTEX
  5
15134D
  8
CROMAT
 10
1.141137702828485
 20
2.3858426536917139
 30
6.7634550497400658
 70
    64
  0
VERTEX
  5
15134E
  8
CROMAT
 10
1.1999999927313181
 20
2.4115475303772822
 30
6.7807314581273728
 70
    64
  0
VERTEX
  5
15134F
  8
CROMAT
 10
0.7999999927313608
 20
2.0941255770799891
 30
6.0941334111969852
 70
    64
  0
VERTEX
  5
151350
  8
CROMAT
 10
0.8030431585254921
 20
2.1318123587286562
 30
6.131819151062726
 70
    64
  0
VERTEX
  5
151351
  8
CROMAT
 10
0.8121518421522416
 20
2.174216242836335
 30
6.174222108576858
 70
    64
  0
VERTEX
  5
151352
  8
CROMAT
 10
0.8272567187710324
 20
2.2200774293408809
 30
6.2200824715456449
 70
    64
  0
VERTEX
  5
151353
  8
CROMAT
 10
0.8482428274053117
 20
2.2681401412315081
 30
6.2681444509478341
 70
    64
  0
VERTEX
  5
151354
  8
CROMAT
 10
0.8749504458934994
 20
2.31715459815875
 30
6.3171582542213782
 70
    64
  0
VERTEX
  5
151355
  8
CROMAT
 10
0.9071763065106816
 20
2.3658789444032431
 30
6.3658820129134748
 70
    64
  0
VERTEX
  5
151356
  8
CROMAT
 10
0.9446751430091337
 20
2.413081116529427
 30
6.41308365002328
 70
    64
  0
VERTEX
  5
151357
  8
CROMAT
 10
0.9871615573033716
 20
2.457540636509286
 30
6.4575426728256868
 70
    64
  0
VERTEX
  5
151358
  8
CROMAT
 10
1.034312191592665
 20
2.4980503166684702
 30
6.4980518775316751
 70
    64
  0
VERTEX
  5
151359
  8
CROMAT
 10
1.0857681893893361
 20
2.5334178634783062
 30
6.533418952811747
 70
    64
  0
VERTEX
  5
15135A
  8
CROMAT
 10
1.1411379267222801
 20
2.5624673679871139
 30
6.5624679699786483
 70
    64
  0
VERTEX
  5
15135B
  8
CROMAT
 10
1.199999992728958
 20
2.584040671546969
 30
6.5840407484881229
 70
    64
  0
VERTEX
  5
15135C
  8
CROMAT
 10
0.7999999927313607
 20
2.3589548617680021
 30
5.8618868794032339
 70
    64
  0
VERTEX
  5
15135D
  8
CROMAT
 10
0.8030434205659172
 20
2.3883540663027709
 30
5.9076949907198877
 70
    64
  0
VERTEX
  5
15135E
  8
CROMAT
 10
0.812152316776622
 20
2.4231494528612569
 30
5.95725018460013
 70
    64
  0
VERTEX
  5
15135F
  8
CROMAT
 10
0.8272573554474139
 20
2.462023768000837
 30
6.0094083160360476
 70
    64
  0
VERTEX
  5
151360
  8
CROMAT
 10
0.8482435752679368
 20
2.5036627848800421
 30
6.0630302596724199
 70
    64
  0
VERTEX
  5
151361
  8
CROMAT
 10
0.8749512544801813
 20
2.5467567880345392
 30
6.1169843718473409
 70
    64
  0
VERTEX
  5
151362
  8
CROMAT
 10
0.9071771264875999
 20
2.5900020238166239
 30
6.1701488956926331
 70
    64
  0
VERTEX
  5
151363
  8
CROMAT
 10
0.9446759268749261
 20
2.6321021054587801
 30
6.2214142909896504
 70
    64
  0
VERTEX
  5
151364
  8
CROMAT
 10
0.9871622600646809
 20
2.6717693620672121
 30
6.2696854710489678
 70
    64
  0
VERTEX
  5
151365
  8
CROMAT
 10
1.034312771403604
 20
2.707726121278085
 30
6.3138839295898457
 70
    64
  0
VERTEX
  5
151366
  8
CROMAT
 10
1.085768608147736
 20
2.7387059158140099
 30
6.3529497414326723
 70
    64
  0
VERTEX
  5
151367
  8
CROMAT
 10
1.141138150616074
 20
2.7634546047576021
 30
6.3858434217778237
 70
    64
  0
VERTEX
  5
151368
  8
CROMAT
 10
1.1999999927265981
 20
2.7807314010079671
 30
6.4115476299208076
 70
    64
  0
VERTEX
  5
151369
  8
CROMAT
 10
0.7999999927313608
 20
2.6518329124472442
 30
5.6661946491310102
 70
    64
  0
VERTEX
  5
15136A
  8
CROMAT
 10
0.8030436679124877
 20
2.6731920914811762
 30
5.7195505410460949
 70
    64
  0
VERTEX
  5
15136B
  8
CROMAT
 10
0.8121527647865512
 20
2.7002052075745642
 30
5.775527549765612
 70
    64
  0
VERTEX
  5
15136C
  8
CROMAT
 10
0.8272579564223159
 20
2.7315774246494109
 30
5.833132757611561
 70
    64
  0
VERTEX
  5
15136D
  8
CROMAT
 10
0.8482442811943393
 20
2.7660159926543568
 30
5.8913792071614521
 70
    64
  0
VERTEX
  5
15136E
  8
CROMAT
 10
0.8749520177255558
 20
2.8022312709179791
 30
5.9492888246360769
 70
    64
  0
VERTEX
  5
15136F
  8
CROMAT
 10
0.9071779004845041
 20
2.8389377278363148
 30
6.0058952756773296
 70
    64
  0
VERTEX
  5
151370
  8
CROMAT
 10
0.9446766667856261
 20
2.874854909285899
 30
6.0602467317818558
 70
    64
  0
VERTEX
  5
151371
  8
CROMAT
 10
0.9871629234188132
 20
2.9087083683916188
 30
6.1114085263362794
 70
    64
  0
VERTEX
  5
151372
  8
CROMAT
 10
1.034313318701781
 20
2.9392305495728528
 30
6.1584656800399484
 70
    64
  0
VERTEX
  5
151373
  8
CROMAT
 10
1.085769003424357
 20
2.9651616201393338
 30
6.2005252764952123
 70
    64
  0
VERTEX
  5
151374
  8
CROMAT
 10
1.141138361955077
 20
2.9852502431073811
 30
6.2367186698854971
 70
    64
  0
VERTEX
  5
151375
  8
CROMAT
 10
1.1999999927243701
 20
2.998254285354522
 30
6.266203507939446
 70
    64
  0
VERTEX
  5
151376
  8
CROMAT
 10
0.799999992731361
 20
2.967748441261179
 30
5.5104051109302654
 70
    64
  0
VERTEX
  5
151377
  8
CROMAT
 10
0.8030438858713457
 20
2.9817300618705018
 30
5.5703277087764818
 70
    64
  0
VERTEX
  5
151378
  8
CROMAT
 10
0.8121531595675771
 20
3.001076073487877
 30
5.6317304557974968
 70
    64
  0
VERTEX
  5
151379
  8
CROMAT
 10
0.8272584859942579
 20
3.0246147292959629
 30
5.6937834500377571
 70
    64
  0
VERTEX
  5
15137A
  8
CROMAT
 10
0.8482449032482982
 20
3.051175539680969
 30
5.755663578645267
 70
    64
  0
VERTEX
  5
15137B
  8
CROMAT
 10
0.8749526902883106
 20
3.07958988898576
 30
5.8165578477929403
 70
    64
  0
VERTEX
  5
15137C
  8
CROMAT
 10
0.9071785825213808
 20
3.1086916380001171
 30
5.875666635588054
 70
    64
  0
VERTEX
  5
15137D
  8
CROMAT
 10
0.9446773187861444
 20
3.1373177076025001
 30
5.9322068432130504
 70
    64
  0
VERTEX
  5
15137E
  8
CROMAT
 10
0.987163507958594
 20
3.1643086391112352
 30
5.9854149203156837
 70
    64
  0
VERTEX
  5
15137F
  8
CROMAT
 10
1.034313800974431
 20
3.1885091270801631
 30
6.0345497416233531
 70
    64
  0
VERTEX
  5
151380
  8
CROMAT
 10
1.085769351737419
 20
3.2087685204836531
 30
6.0788953128889132
 70
    64
  0
VERTEX
  5
151381
  8
CROMAT
 10
1.141138548184494
 20
3.2239412884763818
 30
6.1177632855739716
 70
    64
  0
VERTEX
  5
151382
  8
CROMAT
 10
1.199999992722407
 20
3.2328874471829501
 30
6.15049526113149
 70
    64
  0
VERTEX
  5
151383
  8
CROMAT
 10
0.7999999927313608
 20
3.301295977743294
 30
5.3971839006147784
 70
    64
  0
VERTEX
  5
151384
  8
CROMAT
 10
0.803044059748637
 20
3.308979418019006
 30
5.4622891025102014
 70
    64
  0
VERTEX
  5
151385
  8
CROMAT
 10
0.8121534745052498
 20
3.3210679471677018
 30
5.5278654127668583
 70
    64
  0
VERTEX
  5
151386
  8
CROMAT
 10
0.8272589084617639
 20
3.3366336763673252
 30
5.5932327418161156
 70
    64
  0
VERTEX
  5
151387
  8
CROMAT
 10
0.8482453994935916
 20
3.3547493128034329
 30
5.6577184504087192
 70
    64
  0
VERTEX
  5
151388
  8
CROMAT
 10
0.8749532268271381
 20
3.374488452055846
 30
5.7206610038495196
 70
    64
  0
VERTEX
  5
151389
  8
CROMAT
 10
0.907179126618214
 20
3.3949258637236639
 30
5.781413541719747
 70
    64
  0
VERTEX
  5
15138A
  8
CROMAT
 10
0.9446778389213886
 20
3.4151377681146959
 30
5.8393473359190651
 70
    64
  0
VERTEX
  5
15138B
  8
CROMAT
 10
0.9871639742768463
 20
3.434202101893423
 30
5.893855110709616
 70
    64
  0
VERTEX
  5
15138C
  8
CROMAT
 10
1.034314185708793
 20
3.4511987706656129
 30
5.9443541994944411
 70
    64
  0
VERTEX
  5
15138D
  8
CROMAT
 10
1.0857696296051409
 20
3.4652098865771319
 30
5.9902895143053412
 70
    64
  0
VERTEX
  5
15138E
  8
CROMAT
 10
1.1411386967495349
 20
3.4753199891185882
 30
6.0311363054004588
 70
    64
  0
VERTEX
  5
15138F
  8
CROMAT
 10
1.1999999927208409
 20
3.4806162474552171
 30
6.0664026899694612
 70
    64
  0
VERTEX
  5
151390
  8
CROMAT
 10
0.799999992731361
 20
3.6467683590820501
 30
5.3284682889190451
 70
    64
  0
VERTEX
  5
151391
  8
CROMAT
 10
0.8030441748505058
 20
3.649651435420703
 30
5.3969726532722193
 70
    64
  0
VERTEX
  5
151392
  8
CROMAT
 10
0.812153682985118
 20
3.6551907826360912
 30
5.4652244480376684
 70
    64
  0
VERTEX
  5
151393
  8
CROMAT
 10
0.8272591881233513
 20
3.6628426964308858
 30
5.5326538994976353
 70
    64
  0
VERTEX
  5
151394
  8
CROMAT
 10
0.848245727993997
 20
3.6720636308222829
 30
5.5986991219600091
 70
    64
  0
VERTEX
  5
151395
  8
CROMAT
 10
0.8749535820007277
 20
3.6823102758072039
 30
5.6628099866793384
 70
    64
  0
VERTEX
  5
151396
  8
CROMAT
 10
0.9071794867949911
 20
3.6930396332314341
 30
5.724451901300287
 70
    64
  0
VERTEX
  5
151397
  8
CROMAT
 10
0.94467818323627
 20
3.7037090902852681
 30
5.783109471059662
 70
    64
  0
VERTEX
  5
151398
  8
CROMAT
 10
0.9871642829663933
 20
3.7137764900662402
 30
5.8382900138830376
 70
    64
  0
VERTEX
  5
151399
  8
CROMAT
 10
1.034314440392103
 20
3.7227001986719088
 30
5.8895269026239294
 70
    64
  0
VERTEX
  5
15139A
  8
CROMAT
 10
1.085769813545747
 20
3.7299391683120522
 30
5.9363827090090329
 70
    64
  0
VERTEX
  5
15139B
  8
CROMAT
 10
1.1411387950954079
 20
3.7349529959598922
 30
5.9784521253621987
 70
    64
  0
VERTEX
  5
15139C
  8
CROMAT
 10
1.1999999927198051
 20
3.7372019770959741
 30
6.0153646418710283
 70
    64
  0
VERTEX
  5
15139D
  8
CROMAT
 10
0.799999992731361
 20
3.998254382490634
 30
5.3054340338407977
 70
    64
  0
VERTEX
  5
15139E
  8
CROMAT
 10
0.8030442164830978
 20
3.998254382490634
 30
5.3751586346634843
 70
    64
  0
VERTEX
  5
15139F
  8
CROMAT
 10
0.8121537583927295
 20
3.9982543824906331
 30
5.444352590355658
 70
    64
  0
VERTEX
  5
1513A0
  8
CROMAT
 10
0.8272592892775428
 20
3.9982543824906331
 30
5.5124892926153191
 70
    64
  0
VERTEX
  5
1513A1
  8
CROMAT
 10
0.8482458468132919
 20
3.9982543824906331
 30
5.5790501794854066
 70
    64
  0
VERTEX
  5
1513A2
  8
CROMAT
 10
0.8749537104677706
 20
3.998254382490634
 30
5.6435286819272896
 70
    64
  0
VERTEX
  5
1513A3
  8
CROMAT
 10
0.9071796170716979
 20
3.9982543824906331
 30
5.7054340791208169
 70
    64
  0
VERTEX
  5
1513A4
  8
CROMAT
 10
0.9446783077756952
 20
3.9982543824906331
 30
5.7642952331497712
 70
    64
  0
VERTEX
  5
1513A5
  8
CROMAT
 10
0.987164394620059
 20
3.9982543824906331
 30
5.8196641746493771
 70
    64
  0
VERTEX
  5
1513A6
  8
CROMAT
 10
1.0343145325115981
 20
3.998254382490634
 30
5.8711195121270654
 70
    64
  0
VERTEX
  5
1513A7
  8
CROMAT
 10
1.0857698800774549
 20
3.9982543824906331
 30
5.9182696390092984
 70
    64
  0
VERTEX
  5
1513A8
  8
CROMAT
 10
1.141138830667318
 20
3.9982543824906331
 30
5.960755714007008
 70
    64
  0
VERTEX
  5
1513A9
  8
CROMAT
 10
1.19999999271943
 20
3.9982543824906331
 30
5.9982543921171629
 70
    64
  0
SEQEND
  5
1513AA
  8
CROMAT
  0
POLYLINE
  5
1513AB
  8
CROMAT
 66
     1
 10
0.0
 20
0.0
 30
0.0
 70
    16
 71
     2
 72
    13
  0
VERTEX
  5
1513AC
  8
CROMAT
 10
0.4247818397386083
 20
3.998254382490634
 30
9.6949798559843501
 70
    64
  0
VERTEX
  5
1513AD
  8
CROMAT
 10
0.4247818397386083
 20
3.7760547867093641
 30
9.6815921901585362
 70
    64
  0
VERTEX
  5
1513AE
  8
CROMAT
 10
0.4247818397386083
 20
3.5575288221245791
 30
9.6391859080306102
 70
    64
  0
VERTEX
  5
1513AF
  8
CROMAT
 10
0.4247818397386083
 20
3.3464496141638
 30
9.5684932073588058
 70
    64
  0
VERTEX
  5
1513B0
  8
CROMAT
 10
0.4247818397386083
 20
3.1464617106421602
 30
9.4707346864685888
 70
    64
  0
VERTEX
  5
1513B1
  8
CROMAT
 10
0.4247818397386083
 20
2.961018154063817
 30
9.3475982690885218
 70
    64
  0
VERTEX
  5
1513B2
  8
CROMAT
 10
0.4247818397386083
 20
2.793320860503254
 30
9.2012100602256268
 70
    64
  0
VERTEX
  5
1513B3
  8
CROMAT
 10
0.4247818397386083
 20
2.6462653344999949
 30
9.0340976362903351
 70
    64
  0
VERTEX
  5
1513B4
  8
CROMAT
 10
0.4247818397386083
 20
2.522390674533594
 30
8.8491464033130143
 70
    64
  0
VERTEX
  5
1513B5
  8
CROMAT
 10
0.4247818397386083
 20
2.423835732297178
 30
8.6495497767824006
 70
    64
  0
VERTEX
  5
1513B6
  8
CROMAT
 10
0.4247818397386083
 20
2.352302182734805
 30
8.4387540433136436
 70
    64
  0
VERTEX
  5
1513B7
  8
CROMAT
 10
0.4247818397386083
 20
2.3090251424848458
 30
8.2203988561784946
 70
    64
  0
VERTEX
  5
1513B8
  8
CROMAT
 10
0.4247818397386083
 20
2.2947518440388932
 30
7.9982543921171629
 70
    64
  0
VERTEX
  5
1513B9
  8
CROMAT
 10
1.1999999927384859
 20
3.998254382490634
 30
9.701745221584936
 70
    64
  0
VERTEX
  5
1513BA
  8
CROMAT
 10
1.1999999927384859
 20
3.7759005606946912
 30
9.6871764117718282
 70
    64
  0
VERTEX
  5
1513BB
  8
CROMAT
 10
1.1999999927384859
 20
3.557350703071112
 30
9.6437088144222436
 70
    64
  0
VERTEX
  5
1513BC
  8
CROMAT
 10
1.1999999927384859
 20
3.346344370018834
 30
9.5720861944027007
 70
    64
  0
VERTEX
  5
1513BD
  8
CROMAT
 10
1.1999999927384859
 20
3.146492046283019
 30
9.4735340712189391
 70
    64
  0
VERTEX
  5
1513BE
  8
CROMAT
 10
1.1999999927384859
 20
2.9612133627140551
 30
9.3497387494107862
 70
    64
  0
VERTEX
  5
1513BF
  8
CROMAT
 10
1.1999999927384859
 20
2.7936785836871998
 30
9.2028184645517683
 70
    64
  0
VERTEX
  5
1513C0
  8
CROMAT
 10
1.1999999927384859
 20
2.646754361379243
 30
9.0352871385681333
 70
    64
  0
VERTEX
  5
1513C1
  8
CROMAT
 10
1.1999999927384859
 20
2.5229546850892919
 30
8.8500113645523832
 70
    64
  0
VERTEX
  5
1513C2
  8
CROMAT
 10
1.1999999927384859
 20
2.4243978648994911
 30
8.6501613570950227
 70
    64
  0
VERTEX
  5
1513C3
  8
CROMAT
 10
1.1999999927384859
 20
2.3527702857191422
 30
8.4391567074130869
 70
    64
  0
VERTEX
  5
1513C4
  8
CROMAT
 10
1.1999999927384859
 20
2.309297551909133
 30
8.2206078714479531
 70
    64
  0
VERTEX
  5
1513C5
  8
CROMAT
 10
1.1999999927384859
 20
2.29472351622488
 30
7.9982543921171629
 70
    64
  0
SEQEND
  5
1513C6
  8
CROMAT
  0
POLYLINE
  5
1513C7
  8
CROMAT
 66
     1
 10
0.0
 20
0.0
 30
0.0
 70
    16
 71
     2
 72
    13
  0
VERTEX
  5
1513C8
  8
CROMAT
 10
1.1999999927384859
 20
3.998254382490634
 30
9.701745221584936
 70
    64
  0
VERTEX
  5
1513C9
  8
CROMAT
 10
1.1999999927384859
 20
3.7759005606946912
 30
9.6871764117718282
 70
    64
  0
VERTEX
  5
1513CA
  8
CROMAT
 10
1.1999999927384859
 20
3.557350703071112
 30
9.6437088144222436
 70
    64
  0
VERTEX
  5
1513CB
  8
CROMAT
 10
1.1999999927384859
 20
3.346344370018834
 30
9.5720861944027007
 70
    64
  0
VERTEX
  5
1513CC
  8
CROMAT
 10
1.1999999927384859
 20
3.146492046283019
 30
9.4735340712189391
 70
    64
  0
VERTEX
  5
1513CD
  8
CROMAT
 10
1.1999999927384859
 20
2.9612133627140551
 30
9.3497387494107862
 70
    64
  0
VERTEX
  5
1513CE
  8
CROMAT
 10
1.1999999927384859
 20
2.7936785836871998
 30
9.2028184645517683
 70
    64
  0
VERTEX
  5
1513CF
  8
CROMAT
 10
1.1999999927384859
 20
2.646754361379243
 30
9.0352871385681333
 70
    64
  0
VERTEX
  5
1513D0
  8
CROMAT
 10
1.1999999927384859
 20
2.5229546850892919
 30
8.8500113645523832
 70
    64
  0
VERTEX
  5
1513D1
  8
CROMAT
 10
1.1999999927384859
 20
2.4243978648994911
 30
8.6501613570950227
 70
    64
  0
VERTEX
  5
1513D2
  8
CROMAT
 10
1.1999999927384859
 20
2.3527702857191422
 30
8.4391567074130869
 70
    64
  0
VERTEX
  5
1513D3
  8
CROMAT
 10
1.1999999927384859
 20
2.309297551909133
 30
8.2206078714479531
 70
    64
  0
VERTEX
  5
1513D4
  8
CROMAT
 10
1.1999999927384859
 20
2.29472351622488
 30
7.9982543921171629
 70
    64
  0
VERTEX
  5
1513D5
  8
CROMAT
 10
1.1999999927384859
 20
3.998254382490634
 30
9.9982543921171647
 70
    64
  0
VERTEX
  5
1513D6
  8
CROMAT
 10
1.1999999927384859
 20
3.7372019770959741
 30
9.9811441423632985
 70
    64
  0
VERTEX
  5
1513D7
  8
CROMAT
 10
1.1999999927384859
 20
3.480616247455218
 30
9.9301060942648682
 70
    64
  0
VERTEX
  5
1513D8
  8
CROMAT
 10
1.1999999927384859
 20
3.232887447182951
 30
9.8460135231028367
 70
    64
  0
VERTEX
  5
1513D9
  8
CROMAT
 10
1.1999999927384859
 20
2.9982542853545211
 30
9.7303052762948816
 70
    64
  0
VERTEX
  5
1513DA
  8
CROMAT
 10
1.1999999927384859
 20
2.7807314010079658
 30
9.5849611543135218
 70
    64
  0
VERTEX
  5
1513DB
  8
CROMAT
 10
1.1999999927384859
 20
2.584040671546969
 30
9.4124680357462047
 70
    64
  0
VERTEX
  5
1513DC
  8
CROMAT
 10
1.1999999927384859
 20
2.4115475303772831
 30
9.2157773261069558
 70
    64
  0
VERTEX
  5
1513DD
  8
CROMAT
 10
1.1999999927384859
 20
2.2662033833996622
 30
8.998254458462366
 70
    64
  0
VERTEX
  5
1513DE
  8
CROMAT
 10
1.1999999927384859
 20
2.1504951096292459
 30
8.7636213099303504
 70
    64
  0
VERTEX
  5
1513DF
  8
CROMAT
 10
1.1999999927384859
 20
2.0664025099998962
 30
8.5158925193214365
 70
    64
  0
VERTEX
  5
1513E0
  8
CROMAT
 10
1.1999999927384859
 20
2.0153644324163631
 30
8.2593067955456299
 70
    64
  0
VERTEX
  5
1513E1
  8
CROMAT
 10
1.1999999927384859
 20
1.9982541526641191
 30
7.9982543921171629
 70
    64
  0
SEQEND
  5
1513E2
  8
CROMAT
  0
POLYLINE
  5
1513E3
  8
CROMAT
 66
     1
 10
0.0
 20
0.0
 30
0.0
 70
    16
 71
     2
 72
    13
  0
VERTEX
  5
1513E4
  8
CROMAT
 10
0.4247818397386083
 20
3.9982543824906331
 30
6.3015289282499758
 70
    64
  0
VERTEX
  5
1513E5
  8
CROMAT
 10
0.4247818397386083
 20
3.7760547867093588
 30
6.3149165940757923
 70
    64
  0
VERTEX
  5
1513E6
  8
CROMAT
 10
0.4247818397386083
 20
3.5575288221245751
 30
6.3573228762037166
 70
    64
  0
VERTEX
  5
1513E7
  8
CROMAT
 10
0.4247818397386083
 20
3.3464496141637969
 30
6.4280155768755236
 70
    64
  0
VERTEX
  5
1513E8
  8
CROMAT
 10
0.4247818397386083
 20
3.1464617106421571
 30
6.5257740977657388
 70
    64
  0
VERTEX
  5
1513E9
  8
CROMAT
 10
0.4247818397386083
 20
2.9610181540638161
 30
6.6489105151458094
 70
    64
  0
VERTEX
  5
1513EA
  8
CROMAT
 10
0.4247818397386083
 20
2.7933208605032531
 30
6.7952987240086999
 70
    64
  0
VERTEX
  5
1513EB
  8
CROMAT
 10
0.4247818397386083
 20
2.646265334499994
 30
6.9624111479439907
 70
    64
  0
VERTEX
  5
1513EC
  8
CROMAT
 10
0.4247818397386083
 20
2.522390674533594
 30
7.1473623809213143
 70
    64
  0
VERTEX
  5
1513ED
  8
CROMAT
 10
0.4247818397386083
 20
2.423835732297178
 30
7.3469590074519253
 70
    64
  0
VERTEX
  5
1513EE
  8
CROMAT
 10
0.4247818397386083
 20
2.352302182734805
 30
7.5577547409206813
 70
    64
  0
VERTEX
  5
1513EF
  8
CROMAT
 10
0.4247818397386083
 20
2.3090251424848458
 30
7.7761099280558321
 70
    64
  0
VERTEX
  5
1513F0
  8
CROMAT
 10
0.4247818397386083
 20
2.2947518440388932
 30
7.9982543921171629
 70
    64
  0
VERTEX
  5
1513F1
  8
CROMAT
 10
1.1999999927384859
 20
3.9982543824906318
 30
6.2947635626493899
 70
    64
  0
VERTEX
  5
1513F2
  8
CROMAT
 10
1.1999999927384859
 20
3.7759005606946889
 30
6.3093323724624959
 70
    64
  0
VERTEX
  5
1513F3
  8
CROMAT
 10
1.1999999927384859
 20
3.5573507030711111
 30
6.3527999698120841
 70
    64
  0
VERTEX
  5
1513F4
  8
CROMAT
 10
1.1999999927384859
 20
3.3463443700188331
 30
6.4244225898316261
 70
    64
  0
VERTEX
  5
1513F5
  8
CROMAT
 10
1.1999999927384859
 20
3.1464920462830182
 30
6.5229747130153868
 70
    64
  0
VERTEX
  5
1513F6
  8
CROMAT
 10
1.1999999927384859
 20
2.9612133627140542
 30
6.6467700348235406
 70
    64
  0
VERTEX
  5
1513F7
  8
CROMAT
 10
1.1999999927384859
 20
2.7936785836871998
 30
6.7936903196825611
 70
    64
  0
VERTEX
  5
1513F8
  8
CROMAT
 10
1.1999999927384859
 20
2.646754361379243
 30
6.9612216456661926
 70
    64
  0
VERTEX
  5
1513F9
  8
CROMAT
 10
1.1999999927384859
 20
2.5229546850892919
 30
7.1464974196819453
 70
    64
  0
VERTEX
  5
1513FA
  8
CROMAT
 10
1.1999999927384859
 20
2.4243978648994902
 30
7.3463474271393059
 70
    64
  0
VERTEX
  5
1513FB
  8
CROMAT
 10
1.1999999927384859
 20
2.3527702857191422
 30
7.557352076821239
 70
    64
  0
VERTEX
  5
1513FC
  8
CROMAT
 10
1.1999999927384859
 20
2.3092975519091321
 30
7.7759009127863772
 70
    64
  0
VERTEX
  5
1513FD
  8
CROMAT
 10
1.1999999927384859
 20
2.29472351622488
 30
7.9982543921171629
 70
    64
  0
SEQEND
  5
1513FE
  8
CROMAT
  0
POLYLINE
  5
1513FF
  8
CROMAT
 66
     1
 10
0.0
 20
0.0
 30
0.0
 70
    16
 71
     2
 72
    13
  0
VERTEX
  5
151400
  8
CROMAT
 10
1.1999999927384859
 20
3.9982543824906318
 30
6.2947635626493899
 70
    64
  0
VERTEX
  5
151401
  8
CROMAT
 10
1.1999999927384859
 20
3.7759005606946889
 30
6.3093323724624959
 70
    64
  0
VERTEX
  5
151402
  8
CROMAT
 10
1.1999999927384859
 20
3.5573507030711111
 30
6.3527999698120841
 70
    64
  0
VERTEX
  5
151403
  8
CROMAT
 10
1.1999999927384859
 20
3.3463443700188331
 30
6.4244225898316261
 70
    64
  0
VERTEX
  5
151404
  8
CROMAT
 10
1.1999999927384859
 20
3.1464920462830182
 30
6.5229747130153868
 70
    64
  0
VERTEX
  5
151405
  8
CROMAT
 10
1.1999999927384859
 20
2.9612133627140542
 30
6.6467700348235406
 70
    64
  0
VERTEX
  5
151406
  8
CROMAT
 10
1.1999999927384859
 20
2.7936785836871998
 30
6.7936903196825611
 70
    64
  0
VERTEX
  5
151407
  8
CROMAT
 10
1.1999999927384859
 20
2.646754361379243
 30
6.9612216456661926
 70
    64
  0
VERTEX
  5
151408
  8
CROMAT
 10
1.1999999927384859
 20
2.5229546850892919
 30
7.1464974196819453
 70
    64
  0
VERTEX
  5
151409
  8
CROMAT
 10
1.1999999927384859
 20
2.4243978648994902
 30
7.3463474271393059
 70
    64
  0
VERTEX
  5
15140A
  8
CROMAT
 10
1.1999999927384859
 20
2.3527702857191422
 30
7.557352076821239
 70
    64
  0
VERTEX
  5
15140B
  8
CROMAT
 10
1.1999999927384859
 20
2.3092975519091321
 30
7.7759009127863772
 70
    64
  0
VERTEX
  5
15140C
  8
CROMAT
 10
1.1999999927384859
 20
2.29472351622488
 30
7.9982543921171629
 70
    64
  0
VERTEX
  5
15140D
  8
CROMAT
 10
1.1999999927384859
 20
3.9982543824906318
 30
5.9982543921171629
 70
    64
  0
VERTEX
  5
15140E
  8
CROMAT
 10
1.1999999927384859
 20
3.7372019770959728
 30
6.0153646418710283
 70
    64
  0
VERTEX
  5
15140F
  8
CROMAT
 10
1.1999999927384859
 20
3.4806162474552158
 30
6.0664026899694603
 70
    64
  0
VERTEX
  5
151410
  8
CROMAT
 10
1.1999999927384859
 20
3.2328874471829501
 30
6.15049526113149
 70
    64
  0
VERTEX
  5
151411
  8
CROMAT
 10
1.1999999927384859
 20
2.9982542853545202
 30
6.266203507939446
 70
    64
  0
VERTEX
  5
151412
  8
CROMAT
 10
1.1999999927384859
 20
2.7807314010079649
 30
6.4115476299208058
 70
    64
  0
VERTEX
  5
151413
  8
CROMAT
 10
1.1999999927384859
 20
2.584040671546969
 30
6.5840407484881229
 70
    64
  0
VERTEX
  5
151414
  8
CROMAT
 10
1.1999999927384859
 20
2.4115475303772822
 30
6.7807314581273728
 70
    64
  0
VERTEX
  5
151415
  8
CROMAT
 10
1.1999999927384859
 20
2.2662033833996609
 30
6.9982543257719616
 70
    64
  0
VERTEX
  5
151416
  8
CROMAT
 10
1.1999999927384859
 20
2.1504951096292451
 30
7.232887474303979
 70
    64
  0
VERTEX
  5
151417
  8
CROMAT
 10
1.1999999927384859
 20
2.0664025099998962
 30
7.4806162649128929
 70
    64
  0
VERTEX
  5
151418
  8
CROMAT
 10
1.1999999927384859
 20
2.0153644324163631
 30
7.7372019886886996
 70
    64
  0
VERTEX
  5
151419
  8
CROMAT
 10
1.1999999927384859
 20
1.9982541526641191
 30
7.9982543921171629
 70
    64
  0
SEQEND
  5
15141A
  8
CROMAT
  0
POLYLINE
  5
15141B
  8
CROMAT
 66
     1
 10
0.0
 20
0.0
 30
0.0
 70
    16
 71
    13
 72
    13
  0
VERTEX
  5
15141C
  8
CROMAT
 10
0.7999999927313608
 20
20.998254382490639
 30
10.691074750393531
 70
    64
  0
VERTEX
  5
15141D
  8
CROMAT
 10
0.8030442164834724
 20
20.998254382490639
 30
10.621350149570841
 70
    64
  0
VERTEX
  5
15141E
  8
CROMAT
 10
0.812153758394141
 20
20.998254382490639
 30
10.55215619387867
 70
    64
  0
VERTEX
  5
15141F
  8
CROMAT
 10
0.8272592892805207
 20
20.998254382490639
 30
10.484019491619
 70
    64
  0
VERTEX
  5
151420
  8
CROMAT
 10
0.8482458468182327
 20
20.998254382490639
 30
10.417458604748919
 70
    64
  0
VERTEX
  5
151421
  8
CROMAT
 10
0.8749537104749393
 20
20.998254382490639
 30
10.35298010230704
 70
    64
  0
VERTEX
  5
151422
  8
CROMAT
 10
0.9071796170812266
 20
20.998254382490639
 30
10.291074705113511
 70
    64
  0
VERTEX
  5
151423
  8
CROMAT
 10
0.9446783077875837
 20
20.998254382490639
 30
10.23221355108455
 70
    64
  0
VERTEX
  5
151424
  8
CROMAT
 10
0.9871643946341759
 20
20.998254382490639
 30
10.17684460958494
 70
    64
  0
VERTEX
  5
151425
  8
CROMAT
 10
1.0343145325276779
 20
20.998254382490639
 30
10.12538927210726
 70
    64
  0
VERTEX
  5
151426
  8
CROMAT
 10
1.0857698800950999
 20
20.998254382490639
 30
10.07823914522502
 70
    64
  0
VERTEX
  5
151427
  8
CROMAT
 10
1.1411388306860011
 20
20.998254382490639
 30
10.035753070227321
 70
    64
  0
VERTEX
  5
151428
  8
CROMAT
 10
1.1999999927384859
 20
20.998254382490639
 30
9.9982543921171612
 70
    64
  0
VERTEX
  5
151429
  8
CROMAT
 10
0.7999999927313604
 20
21.349740405899219
 30
10.66804049531528
 70
    64
  0
VERTEX
  5
15142A
  8
CROMAT
 10
0.803044174850866
 20
21.34685732956056
 30
10.599536130962109
 70
    64
  0
VERTEX
  5
15142B
  8
CROMAT
 10
0.812153682986474
 20
21.341317982345181
 30
10.531284336196659
 70
    64
  0
VERTEX
  5
15142C
  8
CROMAT
 10
0.8272591881262119
 20
21.333666068550389
 30
10.463854884736691
 70
    64
  0
VERTEX
  5
15142D
  8
CROMAT
 10
0.8482457279987434
 20
21.324445134158989
 30
10.397809662274319
 70
    64
  0
VERTEX
  5
15142E
  8
CROMAT
 10
0.8749535820076149
 20
21.314198489174071
 30
10.333698797554989
 70
    64
  0
VERTEX
  5
15142F
  8
CROMAT
 10
0.907179486804145
 20
21.303469131749829
 30
10.27205688293404
 70
    64
  0
VERTEX
  5
151430
  8
CROMAT
 10
0.9446781832476913
 20
21.292799674695999
 30
10.21339931317466
 70
    64
  0
VERTEX
  5
151431
  8
CROMAT
 10
0.9871642829799542
 20
21.282732274915031
 30
10.15821877035129
 70
    64
  0
VERTEX
  5
151432
  8
CROMAT
 10
1.0343144404075499
 20
21.273808566309359
 30
10.106981881610389
 70
    64
  0
VERTEX
  5
151433
  8
CROMAT
 10
1.0857698135626981
 20
21.266569596669221
 30
10.060126075225289
 70
    64
  0
VERTEX
  5
151434
  8
CROMAT
 10
1.141138795113354
 20
21.261555769021381
 30
10.01805665887213
 70
    64
  0
VERTEX
  5
151435
  8
CROMAT
 10
1.1999999927381111
 20
21.25930678788529
 30
9.9811441423632985
 70
    64
  0
VERTEX
  5
151436
  8
CROMAT
 10
0.7999999927313608
 20
21.695212787237981
 30
10.59932488361955
 70
    64
  0
VERTEX
  5
151437
  8
CROMAT
 10
0.8030440597489565
 20
21.687529346962268
 30
10.534219681724119
 70
    64
  0
VERTEX
  5
151438
  8
CROMAT
 10
0.8121534745064529
 20
21.67544081781357
 30
10.46864337146747
 70
    64
  0
VERTEX
  5
151439
  8
CROMAT
 10
0.8272589084643005
 20
21.659875088613951
 30
10.403276042418209
 70
    64
  0
VERTEX
  5
15143A
  8
CROMAT
 10
0.8482453994978003
 20
21.64175945217784
 30
10.3387903338256
 70
    64
  0
VERTEX
  5
15143B
  8
CROMAT
 10
0.8749532268332448
 20
21.622020312925422
 30
10.275847780384799
 70
    64
  0
VERTEX
  5
15143C
  8
CROMAT
 10
0.9071791266263314
 20
21.601582901257601
 30
10.215095242514581
 70
    64
  0
VERTEX
  5
15143D
  8
CROMAT
 10
0.9446778389315175
 20
21.581370996866578
 30
10.157161448315261
 70
    64
  0
VERTEX
  5
15143E
  8
CROMAT
 10
0.987163974288871
 20
21.562306663087838
 30
10.10265367352471
 70
    64
  0
VERTEX
  5
15143F
  8
CROMAT
 10
1.03431418572249
 20
21.545309994315652
 30
10.052154584739879
 70
    64
  0
VERTEX
  5
151440
  8
CROMAT
 10
1.0857696296201731
 20
21.53129887840414
 30
10.00621926992898
 70
    64
  0
VERTEX
  5
151441
  8
CROMAT
 10
1.14113869676545
 20
21.521188775862679
 30
9.9653724788338671
 70
    64
  0
VERTEX
  5
151442
  8
CROMAT
 10
1.1999999927370739
 20
21.515892517526051
 30
9.9301060942648682
 70
    64
  0
VERTEX
  5
151443
  8
CROMAT
 10
0.7999999927313604
 20
22.028760323720078
 30
10.48610367330406
 70
    64
  0
VERTEX
  5
151444
  8
CROMAT
 10
0.8030438858716035
 20
22.014778703110771
 30
10.426181075457841
 70
    64
  0
VERTEX
  5
151445
  8
CROMAT
 10
0.8121531595685481
 20
21.995432691493392
 30
10.364778328436829
 70
    64
  0
VERTEX
  5
151446
  8
CROMAT
 10
0.8272584859963059
 20
21.971894035685299
 30
10.302725334196561
 70
    64
  0
VERTEX
  5
151447
  8
CROMAT
 10
0.848244903251696
 20
21.945333225300299
 30
10.240845205589061
 70
    64
  0
VERTEX
  5
151448
  8
CROMAT
 10
0.8749526902932394
 20
21.91691887599551
 30
10.17995093644139
 70
    64
  0
VERTEX
  5
151449
  8
CROMAT
 10
0.9071785825279309
 20
21.887817126981162
 30
10.12084214864627
 70
    64
  0
VERTEX
  5
15144A
  8
CROMAT
 10
0.9446773187943186
 20
21.859191057378769
 30
10.06430194102127
 70
    64
  0
VERTEX
  5
15144B
  8
CROMAT
 10
0.9871635079682992
 20
21.832200125870031
 30
10.01109386391864
 70
    64
  0
VERTEX
  5
15144C
  8
CROMAT
 10
1.0343138009854871
 20
21.807999637901109
 30
9.9619590426109745
 70
    64
  0
VERTEX
  5
15144D
  8
CROMAT
 10
1.085769351749549
 20
21.787740244497609
 30
9.9176134713454225
 70
    64
  0
VERTEX
  5
15144E
  8
CROMAT
 10
1.141138548197338
 20
21.772567476504879
 30
9.8787454986603613
 70
    64
  0
VERTEX
  5
15144F
  8
CROMAT
 10
1.1999999927355081
 20
21.763621317798322
 30
9.8460135231028367
 70
    64
  0
VERTEX
  5
151450
  8
CROMAT
 10
0.7999999927313607
 20
22.344675852534031
 30
10.33031413510332
 70
    64
  0
VERTEX
  5
151451
  8
CROMAT
 10
0.8030436679126676
 20
22.323316673500091
 30
10.276958243188229
 70
    64
  0
VERTEX
  5
151452
  8
CROMAT
 10
0.8121527647872305
 20
22.296303557406699
 30
10.220981234468709
 70
    64
  0
VERTEX
  5
151453
  8
CROMAT
 10
0.8272579564237486
 20
22.264931340331849
 30
10.16337602662276
 70
    64
  0
VERTEX
  5
151454
  8
CROMAT
 10
0.8482442811967187
 20
22.230492772326912
 30
10.105129577072869
 70
    64
  0
VERTEX
  5
151455
  8
CROMAT
 10
0.8749520177290078
 20
22.194277494063289
 30
10.04721995959825
 70
    64
  0
VERTEX
  5
151456
  8
CROMAT
 10
0.907177900489092
 20
22.157571037144962
 30
9.9906135085569936
 70
    64
  0
VERTEX
  5
151457
  8
CROMAT
 10
0.9446766667913514
 20
22.121653855695371
 30
9.9362620524524665
 70
    64
  0
VERTEX
  5
151458
  8
CROMAT
 10
0.9871629234256102
 20
22.08780039658965
 30
9.8851002578980456
 70
    64
  0
VERTEX
  5
151459
  8
CROMAT
 10
1.034313318709523
 20
22.05727821540842
 30
9.8380431041943801
 70
    64
  0
VERTEX
  5
15145A
  8
CROMAT
 10
1.0857690034328531
 20
22.031347144841941
 30
9.7959835077391162
 70
    64
  0
VERTEX
  5
15145B
  8
CROMAT
 10
1.1411383619640709
 20
22.011258521873881
 30
9.7597901143488315
 70
    64
  0
VERTEX
  5
15145C
  8
CROMAT
 10
1.199999992733545
 20
21.998254479626748
 30
9.7303052762948816
 70
    64
  0
VERTEX
  5
15145D
  8
CROMAT
 10
0.7999999927313604
 20
22.637553903213259
 30
10.134621904831089
 70
    64
  0
VERTEX
  5
15145E
  8
CROMAT
 10
0.8030434205660101
 20
22.608154698678501
 30
10.088813793514429
 70
    64
  0
VERTEX
  5
15145F
  8
CROMAT
 10
0.8121523167769726
 20
22.573359312120012
 30
10.03925859963419
 70
    64
  0
VERTEX
  5
151460
  8
CROMAT
 10
0.8272573554481517
 20
22.534484996980432
 30
9.9871004681982818
 70
    64
  0
VERTEX
  5
151461
  8
CROMAT
 10
0.8482435752691607
 20
22.492845980101219
 30
9.9334785245619095
 70
    64
  0
VERTEX
  5
151462
  8
CROMAT
 10
0.8749512544819577
 20
22.449751976946729
 30
9.8795244123869832
 70
    64
  0
VERTEX
  5
151463
  8
CROMAT
 10
0.9071771264899609
 20
22.406506741164641
 30
9.8263598885416918
 70
    64
  0
VERTEX
  5
151464
  8
CROMAT
 10
0.9446759268778709
 20
22.364406659522491
 30
9.7750944932446782
 70
    64
  0
VERTEX
  5
151465
  8
CROMAT
 10
0.9871622600681778
 20
22.324739402914059
 30
9.7268233131853599
 70
    64
  0
VERTEX
  5
151466
  8
CROMAT
 10
1.0343127714075879
 20
22.288782643703179
 30
9.6826248546444802
 70
    64
  0
VERTEX
  5
151467
  8
CROMAT
 10
1.0857686081521081
 20
22.257802849167259
 30
9.6435590428016553
 70
    64
  0
VERTEX
  5
151468
  8
CROMAT
 10
1.1411381506207019
 20
22.23305416022367
 30
9.6106653624565013
 70
    64
  0
VERTEX
  5
151469
  8
CROMAT
 10
1.1999999927313181
 20
22.215777363973299
 30
9.5849611543135218
 70
    64
  0
VERTEX
  5
15146A
  8
CROMAT
 10
0.7999999927313608
 20
22.902383187901279
 30
9.9023753730373443
 70
    64
  0
VERTEX
  5
15146B
  8
CROMAT
 10
0.8030431585254914
 20
22.864696406252609
 30
9.8646896331716007
 70
    64
  0
VERTEX
  5
15146C
  8
CROMAT
 10
0.8121518421522416
 20
22.822292522144931
 30
9.8222866756574732
 70
    64
  0
VERTEX
  5
15146D
  8
CROMAT
 10
0.8272567187710331
 20
22.776431335640378
 30
9.776426312688681
 70
    64
  0
VERTEX
  5
15146E
  8
CROMAT
 10
0.8482428274053127
 20
22.728368623749759
 30
9.7283643332864926
 70
    64
  0
VERTEX
  5
15146F
  8
CROMAT
 10
0.8749504458934996
 20
22.67935416682251
 30
9.6793505300129468
 70
    64
  0
VERTEX
  5
151470
  8
CROMAT
 10
0.9071763065106818
 20
22.630629820578019
 30
9.6306267713208502
 70
    64
  0
VERTEX
  5
151471
  8
CROMAT
 10
0.9446751430091346
 20
22.583427648451838
 30
9.5834251342110512
 70
    64
  0
VERTEX
  5
151472
  8
CROMAT
 10
0.9871615573033725
 20
22.538968128471979
 30
9.5389661114086408
 70
    64
  0
VERTEX
  5
151473
  8
CROMAT
 10
1.0343121915926661
 20
22.4984584483128
 30
9.4984569067026605
 70
    64
  0
VERTEX
  5
151474
  8
CROMAT
 10
1.0857681893893369
 20
22.463090901502959
 30
9.4630898314225789
 70
    64
  0
VERTEX
  5
151475
  8
CROMAT
 10
1.1411379267222801
 20
22.43404139699415
 30
9.4340408142556846
 70
    64
  0
VERTEX
  5
151476
  8
CROMAT
 10
1.199999992728958
 20
22.412468093434299
 30
9.4124680357462083
 70
    64
  0
VERTEX
  5
151477
  8
CROMAT
 10
0.7999999927313607
 20
23.134632346957641
 30
9.6375483923948835
 70
    64
  0
VERTEX
  5
151478
  8
CROMAT
 10
0.8030428964849733
 20
23.088822922378849
 30
9.6081499644687156
 70
    64
  0
VERTEX
  5
151479
  8
CROMAT
 10
0.8121513675275124
 20
23.03926653523008
 30
9.5733552552599406
 70
    64
  0
VERTEX
  5
15147A
  8
CROMAT
 10
0.8272560820939148
 20
22.987107320128121
 30
9.5344815298579952
 70
    64
  0
VERTEX
  5
15147B
  8
CROMAT
 10
0.8482420795414636
 20
22.933484392188209
 30
9.4928430266600543
 70
    64
  0
VERTEX
  5
15147C
  8
CROMAT
 10
0.8749496373050401
 20
22.879529384580088
 30
9.4497494728381888
 70
    64
  0
VERTEX
  5
15147D
  8
CROMAT
 10
0.9071754865314032
 20
22.826364043029919
 30
9.4065046341396936
 70
    64
  0
VERTEX
  5
15147E
  8
CROMAT
 10
0.9446743591403981
 20
22.77509789557644
 30
9.3644049100575089
 70
    64
  0
VERTEX
  5
15147F
  8
CROMAT
 10
0.9871608545385658
 20
22.72682601531702
 30
9.3247379850623098
 70
    64
  0
VERTEX
  5
151480
  8
CROMAT
 10
1.034311611777744
 20
22.682626893171669
 30
9.2887815461612711
 70
    64
  0
VERTEX
  5
151481
  8
CROMAT
 10
1.085767770626568
 20
22.64356043685547
 30
9.2578020765436513
 70
    64
  0
VERTEX
  5
151482
  8
CROMAT
 10
1.141137702823859
 20
22.61066611128955
 30
9.2330537344942627
 70
    64
  0
VERTEX
  5
151483
  8
CROMAT
 10
1.1999999927265981
 20
22.584961234603991
 30
9.2157773261069522
 70
    64
  0
VERTEX
  5
151484
  8
CROMAT
 10
0.7999999927313607
 20
23.33032748275577
 30
9.3446722831207722
 70
    64
  0
VERTEX
  5
151485
  8
CROMAT
 10
0.8030426491383162
 20
23.276970013020708
 30
9.3233136349443804
 70
    64
  0
VERTEX
  5
151486
  8
CROMAT
 10
0.8121509195172539
 20
23.22099153635947
 30
9.2963009735227011
 70
    64
  0
VERTEX
  5
151487
  8
CROMAT
 10
0.8272554811183175
 20
23.163384964631859
 30
9.2649291445157864
 70
    64
  0
VERTEX
  5
151488
  8
CROMAT
 10
0.8482413736139058
 20
23.10513724962161
 30
9.2304909074942572
 70
    64
  0
VERTEX
  5
151489
  8
CROMAT
 10
0.8749488740579912
 20
23.04722645916976
 30
9.1942759127535822
 70
    64
  0
VERTEX
  5
15148A
  8
CROMAT
 10
0.9071747125322712
 20
22.9906189209246
 30
9.1575697017918358
 70
    64
  0
VERTEX
  5
15148B
  8
CROMAT
 10
0.9446736192269185
 20
22.936266455447299
 30
9.1216527390579412
 70
    64
  0
VERTEX
  5
15148C
  8
CROMAT
 10
0.9871601911811326
 20
22.88510371973231
 30
9.0877994823393351
 70
    64
  0
VERTEX
  5
15148D
  8
CROMAT
 10
1.034311064475808
 20
22.83804568136123
 30
9.0572774988639821
 70
    64
  0
VERTEX
  5
15148E
  8
CROMAT
 10
1.085767375345823
 20
22.795985242514671
 30
9.0313466338438104
 70
    64
  0
VERTEX
  5
15148F
  8
CROMAT
 10
1.141137491480491
 20
22.759791031925829
 30
9.0112582377873593
 70
    64
  0
VERTEX
  5
151490
  8
CROMAT
 10
1.1999999927243701
 20
22.730305381581609
 30
8.9982544584623696
 70
    64
  0
VERTEX
  5
151491
  8
CROMAT
 10
0.7999999927313608
 20
23.486120155030751
 30
9.0287582998531555
 70
    64
  0
VERTEX
  5
151492
  8
CROMAT
 10
0.8030424311793813
 20
23.426195735047209
 30
9.0147769967708911
 70
    64
  0
VERTEX
  5
151493
  8
CROMAT
 10
0.8121505247359364
 20
23.36479124710279
 30
8.9954312525131073
 70
    64
  0
VERTEX
  5
151494
  8
CROMAT
 10
0.8272549515457612
 20
23.30273659531461
 30
8.9718928205224273
 70
    64
  0
VERTEX
  5
151495
  8
CROMAT
 10
0.8482407515589298
 20
23.240854894900622
 30
8.9453321970000808
 70
    64
  0
VERTEX
  5
151496
  8
CROMAT
 10
0.8749482014937592
 20
23.179959141712821
 30
8.9169180042537732
 70
    64
  0
VERTEX
  5
151497
  8
CROMAT
 10
0.9071740304934326
 20
23.12084895878991
 30
8.8878163883070904
 70
    64
  0
VERTEX
  5
151498
  8
CROMAT
 10
0.9446729672239506
 20
23.064307444691639
 30
8.8591904353548721
 70
    64
  0
VERTEX
  5
151499
  8
CROMAT
 10
0.9871596066384435
 20
23.01109814760256
 30
8.8321996115057981
 70
    64
  0
VERTEX
  5
15149A
  8
CROMAT
 10
1.0343105821998451
 20
22.961962188235379
 30
8.8079992300760104
 70
    64
  0
VERTEX
  5
15149B
  8
CROMAT
 10
1.0857670270291251
 20
22.917615553432011
 30
8.78773995048806
 70
    64
  0
VERTEX
  5
15149C
  8
CROMAT
 10
1.141137305247224
 20
22.878746581060678
 30
8.7725673125887838
 70
    64
  0
VERTEX
  5
15149D
  8
CROMAT
 10
1.199999992722407
 20
22.846013655352021
 30
8.7636213099303468
 70
    64
  0
VERTEX
  5
15149E
  8
CROMAT
 10
0.7999999927313607
 20
23.599344674343229
 30
8.6952118866134889
 70
    64
  0
VERTEX
  5
15149F
  8
CROMAT
 10
0.8030422573020271
 20
23.534237439629042
 30
8.6875285958201403
 70
    64
  0
VERTEX
  5
1514A0
  8
CROMAT
 10
0.8121502097980318
 20
23.4686591270594
 30
8.6754401905195664
 70
    64
  0
VERTEX
  5
1514A1
  8
CROMAT
 10
0.8272545290777664
 20
23.40328984029863
 30
8.6598745630449372
 70
    64
  0
VERTEX
  5
1514A2
  8
CROMAT
 10
0.8482402553128238
 20
23.338802232915931
 30
8.6417590097038364
 70
    64
  0
VERTEX
  5
1514A3
  8
CROMAT
 10
0.8749476649537539
 20
23.27585785355215
 30
8.6220199384395535
 70
    64
  0
VERTEX
  5
1514A4
  8
CROMAT
 10
0.9071734863950325
 20
23.215103575607181
 30
8.6015825832532542
 70
    64
  0
VERTEX
  5
1514A5
  8
CROMAT
 10
0.9446724470867508
 20
23.157168138622051
 30
8.5813707275606248
 70
    64
  0
VERTEX
  5
1514A6
  8
CROMAT
 10
0.9871591403178712
 20
23.102658827679338
 30
8.5623064385883652
 70
    64
  0
VERTEX
  5
1514A7
  8
CROMAT
 10
1.034310197462841
 20
23.052158316095621
 30
8.5453098148318887
 70
    64
  0
VERTEX
  5
1514A8
  8
CROMAT
 10
1.0857667491585019
 20
23.00622169543615
 30
8.5312987484963188
 70
    64
  0
VERTEX
  5
1514A9
  8
CROMAT
 10
1.141137156679112
 20
22.965373715457019
 30
8.5211887047286723
 70
    64
  0
VERTEX
  5
1514AA
  8
CROMAT
 10
1.1999999927208409
 20
22.930106254981371
 30
8.5158925193214365
 70
    64
  0
VERTEX
  5
1514AB
  8
CROMAT
 10
0.7999999927313608
 20
23.66806371334015
 30
8.3497401869940688
 70
    64
  0
VERTEX
  5
1514AC
  8
CROMAT
 10
0.8030421422001172
 20
23.599557152576441
 30
8.346857150103137
 70
    64
  0
VERTEX
  5
1514AD
  8
CROMAT
 10
0.8121500013180103
 20
23.53130311576259
 30
8.3413178350701251
 70
    64
  0
VERTEX
  5
1514AE
  8
CROMAT
 10
0.8272542494158544
 20
23.463871407127328
 30
8.3336659472162538
 70
    64
  0
VERTEX
  5
1514AF
  8
CROMAT
 10
0.8482399268118818
 20
23.397823943111181
 30
8.3244450335434443
 70
    64
  0
VERTEX
  5
1514B0
  8
CROMAT
 10
0.874947309779384
 20
23.333710882811779
 30
8.3141984050818571
 70
    64
  0
VERTEX
  5
1514B1
  8
CROMAT
 10
0.907173126217218
 20
23.272066847915418
 30
8.3034690610332653
 70
    64
  0
VERTEX
  5
1514B2
  8
CROMAT
 10
0.944672102770578
 20
23.21340726088529
 30
8.2927996152876737
 70
    64
  0
VERTEX
  5
1514B3
  8
CROMAT
 10
0.9871588316267888
 20
23.158224829276701
 30
8.2827322258723992
 70
    64
  0
VERTEX
  5
1514B4
  8
CROMAT
 10
1.034309942777782
 20
23.106986202937708
 30
8.2738085278705178
 70
    64
  0
VERTEX
  5
1514B5
  8
CROMAT
 10
1.085766565215978
 20
23.060128829537209
 30
8.2665695703192057
 70
    64
  0
VERTEX
  5
1514B6
  8
CROMAT
 10
1.141137058331207
 20
23.018058032353551
 30
8.2615557575683845
 70
    64
  0
VERTEX
  5
1514B7
  8
CROMAT
 10
1.1999999927198051
 20
22.981144332564899
 30
8.2593067955456263
 70
    64
  0
VERTEX
  5
1514B8
  8
CROMAT
 10
0.7999999927313608
 20
23.69110145538097
 30
7.9982543921171629
 70
    64
  0
VERTEX
  5
1514B9
  8
CROMAT
 10
0.8030421005675115
 20
23.621374555138949
 30
7.9982543921171629
 70
    64
  0
VERTEX
  5
1514BA
  8
CROMAT
 10
0.8121499259103429
 20
23.552178149488281
 30
7.9982543921171629
 70
    64
  0
VERTEX
  5
1514BB
  8
CROMAT
 10
0.8272541482615466
 20
23.484038898651399
 30
7.998254392117162
 70
    64
  0
VERTEX
  5
1514BC
  8
CROMAT
 10
0.8482398079923914
 20
23.417475416747969
 30
7.9982543921171629
 70
    64
  0
VERTEX
  5
1514BD
  8
CROMAT
 10
0.874947181312059
 20
23.352994324575072
 30
7.998254392117162
 70
    64
  0
VERTEX
  5
1514BE
  8
CROMAT
 10
0.9071729959401366
 20
23.291086393669531
 30
7.9982543921171629
 70
    64
  0
VERTEX
  5
1514BF
  8
CROMAT
 10
0.9446719782306852
 20
23.232222811000621
 30
7.9982543921171629
 70
    64
  0
VERTEX
  5
1514C0
  8
CROMAT
 10
0.9871587199725675
 20
23.176851592722478
 30
7.9982543921171629
 70
    64
  0
VERTEX
  5
1514C1
  8
CROMAT
 10
1.034309850657654
 20
23.12539417428194
 30
7.998254392117162
 70
    64
  0
VERTEX
  5
1514C2
  8
CROMAT
 10
1.085766498683574
 20
23.07824220283446
 30
7.9982543921171647
 70
    64
  0
VERTEX
  5
1514C3
  8
CROMAT
 10
1.14113702275856
 20
23.035754556381541
 30
7.998254392117162
 70
    64
  0
VERTEX
  5
1514C4
  8
CROMAT
 10
1.19999999271943
 20
22.998254612317151
 30
7.9982543921171629
 70
    64
  0
SEQEND
  5
1514C5
  8
CROMAT
  0
POLYLINE
  5
1514C6
  8
CROMAT
 66
     1
 10
0.0
 20
0.0
 30
0.0
 70
    16
 71
    13
 72
    13
  0
VERTEX
  5
1514C7
  8
CROMAT
 10
0.7999999927313608
 20
23.69110145538097
 30
7.9982543921171629
 70
    64
  0
VERTEX
  5
1514C8
  8
CROMAT
 10
0.8030421005678864
 20
23.621374555138949
 30
7.9982543921171629
 70
    64
  0
VERTEX
  5
1514C9
  8
CROMAT
 10
0.8121499259117545
 20
23.552178149488281
 30
7.9982543921171629
 70
    64
  0
VERTEX
  5
1514CA
  8
CROMAT
 10
0.8272541482645242
 20
23.484038898651399
 30
7.998254392117162
 70
    64
  0
VERTEX
  5
1514CB
  8
CROMAT
 10
0.8482398079973316
 20
23.417475416747969
 30
7.9982543921171629
 70
    64
  0
VERTEX
  5
1514CC
  8
CROMAT
 10
0.8749471813192268
 20
23.352994324575072
 30
7.998254392117162
 70
    64
  0
VERTEX
  5
1514CD
  8
CROMAT
 10
0.9071729959496646
 20
23.291086393669531
 30
7.9982543921171629
 70
    64
  0
VERTEX
  5
1514CE
  8
CROMAT
 10
0.9446719782425729
 20
23.232222811000621
 30
7.9982543921171629
 70
    64
  0
VERTEX
  5
1514CF
  8
CROMAT
 10
0.9871587199866826
 20
23.176851592722478
 30
7.9982543921171629
 70
    64
  0
VERTEX
  5
1514D0
  8
CROMAT
 10
1.034309850673732
 20
23.12539417428194
 30
7.998254392117162
 70
    64
  0
VERTEX
  5
1514D1
  8
CROMAT
 10
1.0857664987012181
 20
23.07824220283446
 30
7.9982543921171647
 70
    64
  0
VERTEX
  5
1514D2
  8
CROMAT
 10
1.1411370227772411
 20
23.035754556381541
 30
7.998254392117162
 70
    64
  0
VERTEX
  5
1514D3
  8
CROMAT
 10
1.1999999927384859
 20
22.998254612317151
 30
7.9982543921171629
 70
    64
  0
VERTEX
  5
1514D4
  8
CROMAT
 10
0.7999999927313608
 20
23.66806371334015
 30
7.646768597240257
 70
    64
  0
VERTEX
  5
1514D5
  8
CROMAT
 10
0.8030421422004771
 20
23.599557152576441
 30
7.6496516341311951
 70
    64
  0
VERTEX
  5
1514D6
  8
CROMAT
 10
0.8121500013193664
 20
23.53130311576259
 30
7.6551909491642034
 70
    64
  0
VERTEX
  5
1514D7
  8
CROMAT
 10
0.8272542494187156
 20
23.463871407127328
 30
7.6628428370180748
 70
    64
  0
VERTEX
  5
1514D8
  8
CROMAT
 10
0.8482399268166274
 20
23.397823943111181
 30
7.6720637506908851
 70
    64
  0
VERTEX
  5
1514D9
  8
CROMAT
 10
0.8749473097862702
 20
23.333710882811779
 30
7.6823103791524714
 70
    64
  0
VERTEX
  5
1514DA
  8
CROMAT
 10
0.907173126226371
 20
23.272066847915418
 30
7.6930397232010668
 70
    64
  0
VERTEX
  5
1514DB
  8
CROMAT
 10
0.9446721027819982
 20
23.21340726088529
 30
7.7037091689466548
 70
    64
  0
VERTEX
  5
1514DC
  8
CROMAT
 10
0.9871588316403487
 20
23.158224829276701
 30
7.7137765583619258
 70
    64
  0
VERTEX
  5
1514DD
  8
CROMAT
 10
1.034309942793227
 20
23.106986202937708
 30
7.7227002563638161
 70
    64
  0
VERTEX
  5
1514DE
  8
CROMAT
 10
1.0857665652329269
 20
23.060128829537209
 30
7.7299392139151228
 70
    64
  0
VERTEX
  5
1514DF
  8
CROMAT
 10
1.141137058349152
 20
23.018058032353562
 30
7.7349530266659494
 70
    64
  0
VERTEX
  5
1514E0
  8
CROMAT
 10
1.1999999927381111
 20
22.981144332564899
 30
7.7372019886886996
 70
    64
  0
VERTEX
  5
1514E1
  8
CROMAT
 10
0.7999999927313608
 20
23.599344674343229
 30
7.3012968976208397
 70
    64
  0
VERTEX
  5
1514E2
  8
CROMAT
 10
0.8030422573023464
 20
23.534237439629042
 30
7.3089801884141901
 70
    64
  0
VERTEX
  5
1514E3
  8
CROMAT
 10
0.812150209799234
 20
23.4686591270594
 30
7.3210685937147613
 70
    64
  0
VERTEX
  5
1514E4
  8
CROMAT
 10
0.8272545290803028
 20
23.40328984029863
 30
7.3366342211893976
 70
    64
  0
VERTEX
  5
1514E5
  8
CROMAT
 10
0.8482402553170327
 20
23.338802232915931
 30
7.3547497745304939
 70
    64
  0
VERTEX
  5
1514E6
  8
CROMAT
 10
0.8749476649598598
 20
23.27585785355215
 30
7.3744888457947759
 70
    64
  0
VERTEX
  5
1514E7
  8
CROMAT
 10
0.9071734864031487
 20
23.215103575607181
 30
7.3949262009810779
 70
    64
  0
VERTEX
  5
1514E8
  8
CROMAT
 10
0.9446724470968783
 20
23.157168138622051
 30
7.4151380566737064
 70
    64
  0
VERTEX
  5
1514E9
  8
CROMAT
 10
0.9871591403298957
 20
23.102658827679338
 30
7.4342023456459678
 70
    64
  0
VERTEX
  5
1514EA
  8
CROMAT
 10
1.034310197476537
 20
23.052158316095621
 30
7.4511989694024434
 70
    64
  0
VERTEX
  5
1514EB
  8
CROMAT
 10
1.0857667491735321
 20
23.00622169543615
 30
7.4652100357380098
 70
    64
  0
VERTEX
  5
1514EC
  8
CROMAT
 10
1.1411371566950259
 20
22.965373715457019
 30
7.475320079505658
 70
    64
  0
VERTEX
  5
1514ED
  8
CROMAT
 10
1.199999992737073
 20
22.930106254981371
 30
7.480616264912892
 70
    64
  0
VERTEX
  5
1514EE
  8
CROMAT
 10
0.7999999927313608
 20
23.486120155030751
 30
6.9677504843811739
 70
    64
  0
VERTEX
  5
1514EF
  8
CROMAT
 10
0.8030424311796384
 20
23.426195735047209
 30
6.9817317874634393
 70
    64
  0
VERTEX
  5
1514F0
  8
CROMAT
 10
0.8121505247369075
 20
23.36479124710279
 30
7.0010775317212222
 70
    64
  0
VERTEX
  5
1514F1
  8
CROMAT
 10
0.8272549515478077
 20
23.30273659531461
 30
7.0246159637119012
 70
    64
  0
VERTEX
  5
1514F2
  8
CROMAT
 10
0.8482407515623256
 20
23.240854894900622
 30
7.0511765872342513
 70
    64
  0
VERTEX
  5
1514F3
  8
CROMAT
 10
0.8749482014986869
 20
23.179959141712821
 30
7.0795907799805562
 70
    64
  0
VERTEX
  5
1514F4
  8
CROMAT
 10
0.9071740304999826
 20
23.12084895878991
 30
7.108692395927239
 70
    64
  0
VERTEX
  5
1514F5
  8
CROMAT
 10
0.9446729672321236
 20
23.064307444691639
 30
7.1373183488794556
 70
    64
  0
VERTEX
  5
1514F6
  8
CROMAT
 10
0.9871596066481478
 20
23.01109814760256
 30
7.1643091727285313
 70
    64
  0
VERTEX
  5
1514F7
  8
CROMAT
 10
1.0343105822108991
 20
22.961962188235379
 30
7.188509554158319
 70
    64
  0
VERTEX
  5
1514F8
  8
CROMAT
 10
1.0857670270412549
 20
22.917615553432011
 30
7.2087688337462721
 70
    64
  0
VERTEX
  5
1514F9
  8
CROMAT
 10
1.1411373052600671
 20
22.878746581060689
 30
7.223941471645543
 70
    64
  0
VERTEX
  5
1514FA
  8
CROMAT
 10
1.1999999927355081
 20
22.846013655352021
 30
7.232887474303979
 70
    64
  0
VERTEX
  5
1514FB
  8
CROMAT
 10
0.7999999927313607
 20
23.33032748275577
 30
6.6518365011135581
 70
    64
  0
VERTEX
  5
1514FC
  8
CROMAT
 10
0.8030426491384968
 20
23.276970013020708
 30
6.6731951492899526
 70
    64
  0
VERTEX
  5
1514FD
  8
CROMAT
 10
0.812150919517933
 20
23.22099153635947
 30
6.7002078107116283
 70
    64
  0
VERTEX
  5
1514FE
  8
CROMAT
 10
0.8272554811197503
 20
23.16338496463187
 30
6.731579639718543
 70
    64
  0
VERTEX
  5
1514FF
  8
CROMAT
 10
0.8482413736162845
 20
23.10513724962161
 30
6.7660178767400714
 70
    64
  0
VERTEX
  5
151500
  8
CROMAT
 10
0.874948874061442
 20
23.04722645916976
 30
6.8022328714807507
 70
    64
  0
VERTEX
  5
151501
  8
CROMAT
 10
0.9071747125368592
 20
22.9906189209246
 30
6.8389390824424972
 70
    64
  0
VERTEX
  5
151502
  8
CROMAT
 10
0.9446736192326422
 20
22.936266455447299
 30
6.8748560451763883
 70
    64
  0
VERTEX
  5
151503
  8
CROMAT
 10
0.9871601911879279
 20
22.88510371973231
 30
6.9087093018949961
 70
    64
  0
VERTEX
  5
151504
  8
CROMAT
 10
1.0343110644835489
 20
22.83804568136123
 30
6.9392312853703508
 70
    64
  0
VERTEX
  5
151505
  8
CROMAT
 10
1.0857673753543171
 20
22.795985242514671
 30
6.9651621503905208
 70
    64
  0
VERTEX
  5
151506
  8
CROMAT
 10
1.1411374914894841
 20
22.759791031925829
 30
6.9852505464469656
 70
    64
  0
VERTEX
  5
151507
  8
CROMAT
 10
1.199999992733545
 20
22.730305381581609
 30
6.9982543257719616
 70
    64
  0
VERTEX
  5
151508
  8
CROMAT
 10
0.7999999927313608
 20
23.134632346957641
 30
6.3589603918394468
 70
    64
  0
VERTEX
  5
151509
  8
CROMAT
 10
0.8030428964850671
 20
23.088822922378849
 30
6.3883588197656129
 70
    64
  0
VERTEX
  5
15150A
  8
CROMAT
 10
0.8121513675278627
 20
23.03926653523008
 30
6.4231535289743871
 70
    64
  0
VERTEX
  5
15150B
  8
CROMAT
 10
0.8272560820946521
 20
22.987107320128121
 30
6.4620272543763342
 70
    64
  0
VERTEX
  5
15150C
  8
CROMAT
 10
0.8482420795426877
 20
22.933484392188209
 30
6.5036657575742787
 70
    64
  0
VERTEX
  5
15150D
  8
CROMAT
 10
0.8749496373068161
 20
22.879529384580088
 30
6.5467593113961451
 70
    64
  0
VERTEX
  5
15150E
  8
CROMAT
 10
0.9071754865337632
 20
22.826364043029919
 30
6.5900041500946331
 70
    64
  0
VERTEX
  5
15150F
  8
CROMAT
 10
0.9446743591433418
 20
22.77509789557644
 30
6.6321038741768179
 70
    64
  0
VERTEX
  5
151510
  8
CROMAT
 10
0.9871608545420617
 20
22.72682601531703
 30
6.6717707991720232
 70
    64
  0
VERTEX
  5
151511
  8
CROMAT
 10
1.0343116117817259
 20
22.682626893171669
 30
6.7077272380730548
 70
    64
  0
VERTEX
  5
151512
  8
CROMAT
 10
1.085767770630937
 20
22.64356043685547
 30
6.7387067076906684
 70
    64
  0
VERTEX
  5
151513
  8
CROMAT
 10
1.141137702828485
 20
22.61066611128955
 30
6.7634550497400658
 70
    64
  0
VERTEX
  5
151514
  8
CROMAT
 10
1.1999999927313181
 20
22.584961234603991
 30
6.7807314581273728
 70
    64
  0
VERTEX
  5
151515
  8
CROMAT
 10
0.7999999927313608
 20
22.902383187901279
 30
6.0941334111969852
 70
    64
  0
VERTEX
  5
151516
  8
CROMAT
 10
0.8030431585254921
 20
22.864696406252609
 30
6.131819151062726
 70
    64
  0
VERTEX
  5
151517
  8
CROMAT
 10
0.8121518421522416
 20
22.822292522144931
 30
6.174222108576858
 70
    64
  0
VERTEX
  5
151518
  8
CROMAT
 10
0.8272567187710324
 20
22.776431335640389
 30
6.2200824715456449
 70
    64
  0
VERTEX
  5
151519
  8
CROMAT
 10
0.8482428274053117
 20
22.728368623749759
 30
6.2681444509478341
 70
    64
  0
VERTEX
  5
15151A
  8
CROMAT
 10
0.8749504458934994
 20
22.67935416682252
 30
6.3171582542213782
 70
    64
  0
VERTEX
  5
15151B
  8
CROMAT
 10
0.9071763065106816
 20
22.630629820578019
 30
6.3658820129134748
 70
    64
  0
VERTEX
  5
15151C
  8
CROMAT
 10
0.9446751430091337
 20
22.583427648451838
 30
6.41308365002328
 70
    64
  0
VERTEX
  5
15151D
  8
CROMAT
 10
0.9871615573033716
 20
22.538968128471979
 30
6.4575426728256868
 70
    64
  0
VERTEX
  5
15151E
  8
CROMAT
 10
1.034312191592665
 20
22.4984584483128
 30
6.4980518775316751
 70
    64
  0
VERTEX
  5
15151F
  8
CROMAT
 10
1.0857681893893361
 20
22.463090901502959
 30
6.533418952811747
 70
    64
  0
VERTEX
  5
151520
  8
CROMAT
 10
1.1411379267222801
 20
22.43404139699415
 30
6.5624679699786483
 70
    64
  0
VERTEX
  5
151521
  8
CROMAT
 10
1.199999992728958
 20
22.412468093434299
 30
6.5840407484881229
 70
    64
  0
VERTEX
  5
151522
  8
CROMAT
 10
0.7999999927313607
 20
22.637553903213259
 30
5.8618868794032339
 70
    64
  0
VERTEX
  5
151523
  8
CROMAT
 10
0.8030434205659172
 20
22.608154698678501
 30
5.9076949907198877
 70
    64
  0
VERTEX
  5
151524
  8
CROMAT
 10
0.812152316776622
 20
22.573359312120012
 30
5.95725018460013
 70
    64
  0
VERTEX
  5
151525
  8
CROMAT
 10
0.8272573554474139
 20
22.534484996980432
 30
6.0094083160360476
 70
    64
  0
VERTEX
  5
151526
  8
CROMAT
 10
0.8482435752679368
 20
22.492845980101219
 30
6.0630302596724199
 70
    64
  0
VERTEX
  5
151527
  8
CROMAT
 10
0.8749512544801813
 20
22.449751976946729
 30
6.1169843718473409
 70
    64
  0
VERTEX
  5
151528
  8
CROMAT
 10
0.9071771264875999
 20
22.406506741164641
 30
6.1701488956926331
 70
    64
  0
VERTEX
  5
151529
  8
CROMAT
 10
0.9446759268749261
 20
22.364406659522491
 30
6.2214142909896504
 70
    64
  0
VERTEX
  5
15152A
  8
CROMAT
 10
0.9871622600646809
 20
22.324739402914059
 30
6.2696854710489678
 70
    64
  0
VERTEX
  5
15152B
  8
CROMAT
 10
1.034312771403604
 20
22.288782643703179
 30
6.3138839295898457
 70
    64
  0
VERTEX
  5
15152C
  8
CROMAT
 10
1.085768608147736
 20
22.257802849167259
 30
6.3529497414326723
 70
    64
  0
VERTEX
  5
15152D
  8
CROMAT
 10
1.141138150616074
 20
22.23305416022367
 30
6.3858434217778237
 70
    64
  0
VERTEX
  5
15152E
  8
CROMAT
 10
1.1999999927265981
 20
22.215777363973299
 30
6.4115476299208076
 70
    64
  0
VERTEX
  5
15152F
  8
CROMAT
 10
0.7999999927313608
 20
22.344675852534031
 30
5.6661946491310102
 70
    64
  0
VERTEX
  5
151530
  8
CROMAT
 10
0.8030436679124877
 20
22.323316673500099
 30
5.7195505410460949
 70
    64
  0
VERTEX
  5
151531
  8
CROMAT
 10
0.8121527647865512
 20
22.296303557406699
 30
5.775527549765612
 70
    64
  0
VERTEX
  5
151532
  8
CROMAT
 10
0.8272579564223159
 20
22.264931340331849
 30
5.833132757611561
 70
    64
  0
VERTEX
  5
151533
  8
CROMAT
 10
0.8482442811943393
 20
22.230492772326912
 30
5.8913792071614521
 70
    64
  0
VERTEX
  5
151534
  8
CROMAT
 10
0.8749520177255558
 20
22.194277494063289
 30
5.9492888246360769
 70
    64
  0
VERTEX
  5
151535
  8
CROMAT
 10
0.9071779004845041
 20
22.157571037144962
 30
6.0058952756773296
 70
    64
  0
VERTEX
  5
151536
  8
CROMAT
 10
0.9446766667856261
 20
22.121653855695371
 30
6.0602467317818558
 70
    64
  0
VERTEX
  5
151537
  8
CROMAT
 10
0.9871629234188132
 20
22.08780039658965
 30
6.1114085263362794
 70
    64
  0
VERTEX
  5
151538
  8
CROMAT
 10
1.034313318701781
 20
22.05727821540842
 30
6.1584656800399484
 70
    64
  0
VERTEX
  5
151539
  8
CROMAT
 10
1.085769003424357
 20
22.031347144841931
 30
6.2005252764952123
 70
    64
  0
VERTEX
  5
15153A
  8
CROMAT
 10
1.141138361955077
 20
22.011258521873881
 30
6.2367186698854971
 70
    64
  0
VERTEX
  5
15153B
  8
CROMAT
 10
1.1999999927243701
 20
21.998254479626748
 30
6.266203507939446
 70
    64
  0
VERTEX
  5
15153C
  8
CROMAT
 10
0.799999992731361
 20
22.028760323720078
 30
5.5104051109302654
 70
    64
  0
VERTEX
  5
15153D
  8
CROMAT
 10
0.8030438858713457
 20
22.014778703110771
 30
5.5703277087764818
 70
    64
  0
VERTEX
  5
15153E
  8
CROMAT
 10
0.8121531595675771
 20
21.995432691493392
 30
5.6317304557974968
 70
    64
  0
VERTEX
  5
15153F
  8
CROMAT
 10
0.8272584859942579
 20
21.971894035685299
 30
5.6937834500377571
 70
    64
  0
VERTEX
  5
151540
  8
CROMAT
 10
0.8482449032482982
 20
21.945333225300299
 30
5.755663578645267
 70
    64
  0
VERTEX
  5
151541
  8
CROMAT
 10
0.8749526902883106
 20
21.91691887599551
 30
5.8165578477929403
 70
    64
  0
VERTEX
  5
151542
  8
CROMAT
 10
0.9071785825213808
 20
21.887817126981151
 30
5.875666635588054
 70
    64
  0
VERTEX
  5
151543
  8
CROMAT
 10
0.9446773187861444
 20
21.859191057378769
 30
5.9322068432130504
 70
    64
  0
VERTEX
  5
151544
  8
CROMAT
 10
0.987163507958594
 20
21.832200125870031
 30
5.9854149203156837
 70
    64
  0
VERTEX
  5
151545
  8
CROMAT
 10
1.034313800974431
 20
21.807999637901109
 30
6.0345497416233531
 70
    64
  0
VERTEX
  5
151546
  8
CROMAT
 10
1.085769351737419
 20
21.787740244497609
 30
6.0788953128889132
 70
    64
  0
VERTEX
  5
151547
  8
CROMAT
 10
1.141138548184494
 20
21.772567476504879
 30
6.1177632855739716
 70
    64
  0
VERTEX
  5
151548
  8
CROMAT
 10
1.199999992722407
 20
21.763621317798322
 30
6.15049526113149
 70
    64
  0
VERTEX
  5
151549
  8
CROMAT
 10
0.7999999927313608
 20
21.695212787237971
 30
5.3971839006147784
 70
    64
  0
VERTEX
  5
15154A
  8
CROMAT
 10
0.803044059748637
 20
21.687529346962268
 30
5.4622891025102014
 70
    64
  0
VERTEX
  5
15154B
  8
CROMAT
 10
0.8121534745052498
 20
21.67544081781357
 30
5.5278654127668583
 70
    64
  0
VERTEX
  5
15154C
  8
CROMAT
 10
0.8272589084617639
 20
21.659875088613951
 30
5.5932327418161156
 70
    64
  0
VERTEX
  5
15154D
  8
CROMAT
 10
0.8482453994935916
 20
21.64175945217784
 30
5.6577184504087192
 70
    64
  0
VERTEX
  5
15154E
  8
CROMAT
 10
0.8749532268271381
 20
21.622020312925422
 30
5.7206610038495196
 70
    64
  0
VERTEX
  5
15154F
  8
CROMAT
 10
0.907179126618214
 20
21.601582901257601
 30
5.781413541719747
 70
    64
  0
VERTEX
  5
151550
  8
CROMAT
 10
0.9446778389213886
 20
21.581370996866571
 30
5.8393473359190651
 70
    64
  0
VERTEX
  5
151551
  8
CROMAT
 10
0.9871639742768463
 20
21.562306663087838
 30
5.893855110709616
 70
    64
  0
VERTEX
  5
151552
  8
CROMAT
 10
1.034314185708793
 20
21.545309994315652
 30
5.9443541994944411
 70
    64
  0
VERTEX
  5
151553
  8
CROMAT
 10
1.0857696296051409
 20
21.53129887840414
 30
5.9902895143053412
 70
    64
  0
VERTEX
  5
151554
  8
CROMAT
 10
1.1411386967495349
 20
21.521188775862679
 30
6.0311363054004588
 70
    64
  0
VERTEX
  5
151555
  8
CROMAT
 10
1.1999999927208409
 20
21.515892517526051
 30
6.0664026899694612
 70
    64
  0
VERTEX
  5
151556
  8
CROMAT
 10
0.799999992731361
 20
21.349740405899219
 30
5.3284682889190451
 70
    64
  0
VERTEX
  5
151557
  8
CROMAT
 10
0.8030441748505058
 20
21.34685732956056
 30
5.3969726532722193
 70
    64
  0
VERTEX
  5
151558
  8
CROMAT
 10
0.812153682985118
 20
21.341317982345181
 30
5.4652244480376684
 70
    64
  0
VERTEX
  5
151559
  8
CROMAT
 10
0.8272591881233513
 20
21.333666068550379
 30
5.5326538994976353
 70
    64
  0
VERTEX
  5
15155A
  8
CROMAT
 10
0.848245727993997
 20
21.324445134158989
 30
5.5986991219600091
 70
    64
  0
VERTEX
  5
15155B
  8
CROMAT
 10
0.8749535820007277
 20
21.314198489174061
 30
5.6628099866793384
 70
    64
  0
VERTEX
  5
15155C
  8
CROMAT
 10
0.9071794867949911
 20
21.303469131749829
 30
5.724451901300287
 70
    64
  0
VERTEX
  5
15155D
  8
CROMAT
 10
0.94467818323627
 20
21.292799674695999
 30
5.783109471059662
 70
    64
  0
VERTEX
  5
15155E
  8
CROMAT
 10
0.9871642829663933
 20
21.282732274915031
 30
5.8382900138830376
 70
    64
  0
VERTEX
  5
15155F
  8
CROMAT
 10
1.034314440392103
 20
21.273808566309359
 30
5.8895269026239294
 70
    64
  0
VERTEX
  5
151560
  8
CROMAT
 10
1.085769813545747
 20
21.266569596669221
 30
5.9363827090090329
 70
    64
  0
VERTEX
  5
151561
  8
CROMAT
 10
1.1411387950954079
 20
21.261555769021381
 30
5.9784521253621987
 70
    64
  0
VERTEX
  5
151562
  8
CROMAT
 10
1.1999999927198051
 20
21.25930678788529
 30
6.0153646418710283
 70
    64
  0
VERTEX
  5
151563
  8
CROMAT
 10
0.799999992731361
 20
20.998254382490639
 30
5.3054340338407977
 70
    64
  0
VERTEX
  5
151564
  8
CROMAT
 10
0.8030442164830978
 20
20.998254382490639
 30
5.3751586346634843
 70
    64
  0
VERTEX
  5
151565
  8
CROMAT
 10
0.8121537583927295
 20
20.998254382490639
 30
5.444352590355658
 70
    64
  0
VERTEX
  5
151566
  8
CROMAT
 10
0.8272592892775428
 20
20.998254382490639
 30
5.5124892926153191
 70
    64
  0
VERTEX
  5
151567
  8
CROMAT
 10
0.8482458468132919
 20
20.998254382490639
 30
5.5790501794854066
 70
    64
  0
VERTEX
  5
151568
  8
CROMAT
 10
0.8749537104677706
 20
20.998254382490639
 30
5.6435286819272896
 70
    64
  0
VERTEX
  5
151569
  8
CROMAT
 10
0.9071796170716979
 20
20.998254382490639
 30
5.7054340791208169
 70
    64
  0
VERTEX
  5
15156A
  8
CROMAT
 10
0.9446783077756952
 20
20.998254382490639
 30
5.7642952331497712
 70
    64
  0
VERTEX
  5
15156B
  8
CROMAT
 10
0.987164394620059
 20
20.998254382490639
 30
5.8196641746493771
 70
    64
  0
VERTEX
  5
15156C
  8
CROMAT
 10
1.0343145325115981
 20
20.998254382490639
 30
5.8711195121270654
 70
    64
  0
VERTEX
  5
15156D
  8
CROMAT
 10
1.0857698800774549
 20
20.998254382490639
 30
5.9182696390092984
 70
    64
  0
VERTEX
  5
15156E
  8
CROMAT
 10
1.141138830667318
 20
20.998254382490639
 30
5.960755714007008
 70
    64
  0
VERTEX
  5
15156F
  8
CROMAT
 10
1.19999999271943
 20
20.998254382490639
 30
5.9982543921171629
 70
    64
  0
SEQEND
  5
151570
  8
CROMAT
  0
POLYLINE
  5
151571
  8
CROMAT
 66
     1
 10
0.0
 20
0.0
 30
0.0
 70
    16
 71
     2
 72
    13
  0
VERTEX
  5
151572
  8
CROMAT
 10
0.4247818397386083
 20
20.998254382490639
 30
9.6949798559843501
 70
    64
  0
VERTEX
  5
151573
  8
CROMAT
 10
0.4247818397386083
 20
21.220453978271909
 30
9.6815921901585362
 70
    64
  0
VERTEX
  5
151574
  8
CROMAT
 10
0.4247818397386083
 20
21.43897994285669
 30
9.6391859080306102
 70
    64
  0
VERTEX
  5
151575
  8
CROMAT
 10
0.4247818397386083
 20
21.650059150817469
 30
9.5684932073588058
 70
    64
  0
VERTEX
  5
151576
  8
CROMAT
 10
0.4247818397386083
 20
21.850047054339111
 30
9.4707346864685888
 70
    64
  0
VERTEX
  5
151577
  8
CROMAT
 10
0.4247818397386083
 20
22.035490610917449
 30
9.3475982690885218
 70
    64
  0
VERTEX
  5
151578
  8
CROMAT
 10
0.4247818397386083
 20
22.203187904478021
 30
9.2012100602256268
 70
    64
  0
VERTEX
  5
151579
  8
CROMAT
 10
0.4247818397386083
 20
22.350243430481271
 30
9.0340976362903351
 70
    64
  0
VERTEX
  5
15157A
  8
CROMAT
 10
0.4247818397386083
 20
22.474118090447678
 30
8.8491464033130143
 70
    64
  0
VERTEX
  5
15157B
  8
CROMAT
 10
0.4247818397386083
 20
22.57267303268409
 30
8.6495497767824006
 70
    64
  0
VERTEX
  5
15157C
  8
CROMAT
 10
0.4247818397386083
 20
22.644206582246461
 30
8.4387540433136436
 70
    64
  0
VERTEX
  5
15157D
  8
CROMAT
 10
0.4247818397386083
 20
22.687483622496419
 30
8.2203988561784946
 70
    64
  0
VERTEX
  5
15157E
  8
CROMAT
 10
0.4247818397386083
 20
22.701756920942369
 30
7.9982543921171629
 70
    64
  0
VERTEX
  5
15157F
  8
CROMAT
 10
1.1999999927384859
 20
20.998254382490639
 30
9.701745221584936
 70
    64
  0
VERTEX
  5
151580
  8
CROMAT
 10
1.1999999927384859
 20
21.220608204286581
 30
9.6871764117718282
 70
    64
  0
VERTEX
  5
151581
  8
CROMAT
 10
1.1999999927384859
 20
21.439158061910149
 30
9.6437088144222436
 70
    64
  0
VERTEX
  5
151582
  8
CROMAT
 10
1.1999999927384859
 20
21.650164394962431
 30
9.5720861944027007
 70
    64
  0
VERTEX
  5
151583
  8
CROMAT
 10
1.1999999927384859
 20
21.850016718698249
 30
9.4735340712189391
 70
    64
  0
VERTEX
  5
151584
  8
CROMAT
 10
1.1999999927384859
 20
22.035295402267209
 30
9.3497387494107862
 70
    64
  0
VERTEX
  5
151585
  8
CROMAT
 10
1.1999999927384859
 20
22.202830181294068
 30
9.2028184645517683
 70
    64
  0
VERTEX
  5
151586
  8
CROMAT
 10
1.1999999927384859
 20
22.349754403602031
 30
9.0352871385681333
 70
    64
  0
VERTEX
  5
151587
  8
CROMAT
 10
1.1999999927384859
 20
22.473554079891979
 30
8.8500113645523832
 70
    64
  0
VERTEX
  5
151588
  8
CROMAT
 10
1.1999999927384859
 20
22.572110900081778
 30
8.6501613570950227
 70
    64
  0
VERTEX
  5
151589
  8
CROMAT
 10
1.1999999927384859
 20
22.643738479262129
 30
8.4391567074130869
 70
    64
  0
VERTEX
  5
15158A
  8
CROMAT
 10
1.1999999927384859
 20
22.687211213072128
 30
8.2206078714479531
 70
    64
  0
VERTEX
  5
15158B
  8
CROMAT
 10
1.1999999927384859
 20
22.701785248756391
 30
7.9982543921171629
 70
    64
  0
SEQEND
  5
15158C
  8
CROMAT
  0
POLYLINE
  5
15158D
  8
CROMAT
 66
     1
 10
0.0
 20
0.0
 30
0.0
 70
    16
 71
     2
 72
    13
  0
VERTEX
  5
15158E
  8
CROMAT
 10
1.1999999927384859
 20
20.998254382490639
 30
9.701745221584936
 70
    64
  0
VERTEX
  5
15158F
  8
CROMAT
 10
1.1999999927384859
 20
21.220608204286581
 30
9.6871764117718282
 70
    64
  0
VERTEX
  5
151590
  8
CROMAT
 10
1.1999999927384859
 20
21.439158061910149
 30
9.6437088144222436
 70
    64
  0
VERTEX
  5
151591
  8
CROMAT
 10
1.1999999927384859
 20
21.650164394962431
 30
9.5720861944027007
 70
    64
  0
VERTEX
  5
151592
  8
CROMAT
 10
1.1999999927384859
 20
21.850016718698249
 30
9.4735340712189391
 70
    64
  0
VERTEX
  5
151593
  8
CROMAT
 10
1.1999999927384859
 20
22.035295402267209
 30
9.3497387494107862
 70
    64
  0
VERTEX
  5
151594
  8
CROMAT
 10
1.1999999927384859
 20
22.202830181294068
 30
9.2028184645517683
 70
    64
  0
VERTEX
  5
151595
  8
CROMAT
 10
1.1999999927384859
 20
22.349754403602031
 30
9.0352871385681333
 70
    64
  0
VERTEX
  5
151596
  8
CROMAT
 10
1.1999999927384859
 20
22.473554079891979
 30
8.8500113645523832
 70
    64
  0
VERTEX
  5
151597
  8
CROMAT
 10
1.1999999927384859
 20
22.572110900081778
 30
8.6501613570950227
 70
    64
  0
VERTEX
  5
151598
  8
CROMAT
 10
1.1999999927384859
 20
22.643738479262129
 30
8.4391567074130869
 70
    64
  0
VERTEX
  5
151599
  8
CROMAT
 10
1.1999999927384859
 20
22.687211213072128
 30
8.2206078714479531
 70
    64
  0
VERTEX
  5
15159A
  8
CROMAT
 10
1.1999999927384859
 20
22.701785248756391
 30
7.9982543921171629
 70
    64
  0
VERTEX
  5
15159B
  8
CROMAT
 10
1.1999999927384859
 20
20.998254382490639
 30
9.9982543921171647
 70
    64
  0
VERTEX
  5
15159C
  8
CROMAT
 10
1.1999999927384859
 20
21.25930678788529
 30
9.9811441423632985
 70
    64
  0
VERTEX
  5
15159D
  8
CROMAT
 10
1.1999999927384859
 20
21.515892517526051
 30
9.9301060942648682
 70
    64
  0
VERTEX
  5
15159E
  8
CROMAT
 10
1.1999999927384859
 20
21.763621317798322
 30
9.8460135231028367
 70
    64
  0
VERTEX
  5
15159F
  8
CROMAT
 10
1.1999999927384859
 20
21.998254479626748
 30
9.7303052762948816
 70
    64
  0
VERTEX
  5
1515A0
  8
CROMAT
 10
1.1999999927384859
 20
22.215777363973299
 30
9.5849611543135218
 70
    64
  0
VERTEX
  5
1515A1
  8
CROMAT
 10
1.1999999927384859
 20
22.412468093434299
 30
9.4124680357462047
 70
    64
  0
VERTEX
  5
1515A2
  8
CROMAT
 10
1.1999999927384859
 20
22.584961234603991
 30
9.2157773261069558
 70
    64
  0
VERTEX
  5
1515A3
  8
CROMAT
 10
1.1999999927384859
 20
22.730305381581609
 30
8.998254458462366
 70
    64
  0
VERTEX
  5
1515A4
  8
CROMAT
 10
1.1999999927384859
 20
22.846013655352021
 30
8.7636213099303504
 70
    64
  0
VERTEX
  5
1515A5
  8
CROMAT
 10
1.1999999927384859
 20
22.930106254981371
 30
8.5158925193214365
 70
    64
  0
VERTEX
  5
1515A6
  8
CROMAT
 10
1.1999999927384859
 20
22.981144332564899
 30
8.2593067955456299
 70
    64
  0
VERTEX
  5
1515A7
  8
CROMAT
 10
1.1999999927384859
 20
22.998254612317151
 30
7.9982543921171629
 70
    64
  0
SEQEND
  5
1515A8
  8
CROMAT
  0
POLYLINE
  5
1515A9
  8
CROMAT
 66
     1
 10
0.0
 20
0.0
 30
0.0
 70
    16
 71
     2
 72
    13
  0
VERTEX
  5
1515AA
  8
CROMAT
 10
0.4247818397386083
 20
20.998254382490639
 30
6.3015289282499758
 70
    64
  0
VERTEX
  5
1515AB
  8
CROMAT
 10
0.4247818397386083
 20
21.220453978271909
 30
6.3149165940757923
 70
    64
  0
VERTEX
  5
1515AC
  8
CROMAT
 10
0.4247818397386083
 20
21.43897994285669
 30
6.3573228762037166
 70
    64
  0
VERTEX
  5
1515AD
  8
CROMAT
 10
0.4247818397386083
 20
21.650059150817469
 30
6.4280155768755236
 70
    64
  0
VERTEX
  5
1515AE
  8
CROMAT
 10
0.4247818397386083
 20
21.850047054339111
 30
6.5257740977657388
 70
    64
  0
VERTEX
  5
1515AF
  8
CROMAT
 10
0.4247818397386083
 20
22.035490610917449
 30
6.6489105151458094
 70
    64
  0
VERTEX
  5
1515B0
  8
CROMAT
 10
0.4247818397386083
 20
22.203187904478021
 30
6.7952987240086999
 70
    64
  0
VERTEX
  5
1515B1
  8
CROMAT
 10
0.4247818397386083
 20
22.350243430481271
 30
6.9624111479439907
 70
    64
  0
VERTEX
  5
1515B2
  8
CROMAT
 10
0.4247818397386083
 20
22.474118090447678
 30
7.1473623809213143
 70
    64
  0
VERTEX
  5
1515B3
  8
CROMAT
 10
0.4247818397386083
 20
22.57267303268409
 30
7.3469590074519253
 70
    64
  0
VERTEX
  5
1515B4
  8
CROMAT
 10
0.4247818397386083
 20
22.644206582246461
 30
7.5577547409206813
 70
    64
  0
VERTEX
  5
1515B5
  8
CROMAT
 10
0.4247818397386083
 20
22.687483622496419
 30
7.7761099280558321
 70
    64
  0
VERTEX
  5
1515B6
  8
CROMAT
 10
0.4247818397386083
 20
22.701756920942369
 30
7.9982543921171629
 70
    64
  0
VERTEX
  5
1515B7
  8
CROMAT
 10
1.1999999927384859
 20
20.998254382490639
 30
6.2947635626493899
 70
    64
  0
VERTEX
  5
1515B8
  8
CROMAT
 10
1.1999999927384859
 20
21.220608204286581
 30
6.3093323724624959
 70
    64
  0
VERTEX
  5
1515B9
  8
CROMAT
 10
1.1999999927384859
 20
21.439158061910149
 30
6.3527999698120841
 70
    64
  0
VERTEX
  5
1515BA
  8
CROMAT
 10
1.1999999927384859
 20
21.650164394962431
 30
6.4244225898316261
 70
    64
  0
VERTEX
  5
1515BB
  8
CROMAT
 10
1.1999999927384859
 20
21.850016718698249
 30
6.5229747130153868
 70
    64
  0
VERTEX
  5
1515BC
  8
CROMAT
 10
1.1999999927384859
 20
22.03529540226722
 30
6.6467700348235406
 70
    64
  0
VERTEX
  5
1515BD
  8
CROMAT
 10
1.1999999927384859
 20
22.202830181294068
 30
6.7936903196825611
 70
    64
  0
VERTEX
  5
1515BE
  8
CROMAT
 10
1.1999999927384859
 20
22.349754403602031
 30
6.9612216456661926
 70
    64
  0
VERTEX
  5
1515BF
  8
CROMAT
 10
1.1999999927384859
 20
22.473554079891979
 30
7.1464974196819453
 70
    64
  0
VERTEX
  5
1515C0
  8
CROMAT
 10
1.1999999927384859
 20
22.572110900081778
 30
7.3463474271393059
 70
    64
  0
VERTEX
  5
1515C1
  8
CROMAT
 10
1.1999999927384859
 20
22.643738479262129
 30
7.557352076821239
 70
    64
  0
VERTEX
  5
1515C2
  8
CROMAT
 10
1.1999999927384859
 20
22.687211213072128
 30
7.7759009127863772
 70
    64
  0
VERTEX
  5
1515C3
  8
CROMAT
 10
1.1999999927384859
 20
22.701785248756391
 30
7.9982543921171629
 70
    64
  0
SEQEND
  5
1515C4
  8
CROMAT
  0
POLYLINE
  5
1515C5
  8
CROMAT
 66
     1
 10
0.0
 20
0.0
 30
0.0
 70
    16
 71
     2
 72
    13
  0
VERTEX
  5
1515C6
  8
CROMAT
 10
1.1999999927384859
 20
20.998254382490639
 30
6.2947635626493899
 70
    64
  0
VERTEX
  5
1515C7
  8
CROMAT
 10
1.1999999927384859
 20
21.220608204286581
 30
6.3093323724624959
 70
    64
  0
VERTEX
  5
1515C8
  8
CROMAT
 10
1.1999999927384859
 20
21.439158061910149
 30
6.3527999698120841
 70
    64
  0
VERTEX
  5
1515C9
  8
CROMAT
 10
1.1999999927384859
 20
21.650164394962431
 30
6.4244225898316261
 70
    64
  0
VERTEX
  5
1515CA
  8
CROMAT
 10
1.1999999927384859
 20
21.850016718698249
 30
6.5229747130153868
 70
    64
  0
VERTEX
  5
1515CB
  8
CROMAT
 10
1.1999999927384859
 20
22.03529540226722
 30
6.6467700348235406
 70
    64
  0
VERTEX
  5
1515CC
  8
CROMAT
 10
1.1999999927384859
 20
22.202830181294068
 30
6.7936903196825611
 70
    64
  0
VERTEX
  5
1515CD
  8
CROMAT
 10
1.1999999927384859
 20
22.349754403602031
 30
6.9612216456661926
 70
    64
  0
VERTEX
  5
1515CE
  8
CROMAT
 10
1.1999999927384859
 20
22.473554079891979
 30
7.1464974196819453
 70
    64
  0
VERTEX
  5
1515CF
  8
CROMAT
 10
1.1999999927384859
 20
22.572110900081778
 30
7.3463474271393059
 70
    64
  0
VERTEX
  5
1515D0
  8
CROMAT
 10
1.1999999927384859
 20
22.643738479262129
 30
7.557352076821239
 70
    64
  0
VERTEX
  5
1515D1
  8
CROMAT
 10
1.1999999927384859
 20
22.687211213072128
 30
7.7759009127863772
 70
    64
  0
VERTEX
  5
1515D2
  8
CROMAT
 10
1.1999999927384859
 20
22.701785248756391
 30
7.9982543921171629
 70
    64
  0
VERTEX
  5
1515D3
  8
CROMAT
 10
1.1999999927384859
 20
20.998254382490639
 30
5.9982543921171629
 70
    64
  0
VERTEX
  5
1515D4
  8
CROMAT
 10
1.1999999927384859
 20
21.25930678788529
 30
6.0153646418710283
 70
    64
  0
VERTEX
  5
1515D5
  8
CROMAT
 10
1.1999999927384859
 20
21.515892517526051
 30
6.0664026899694603
 70
    64
  0
VERTEX
  5
1515D6
  8
CROMAT
 10
1.1999999927384859
 20
21.763621317798322
 30
6.15049526113149
 70
    64
  0
VERTEX
  5
1515D7
  8
CROMAT
 10
1.1999999927384859
 20
21.998254479626748
 30
6.266203507939446
 70
    64
  0
VERTEX
  5
1515D8
  8
CROMAT
 10
1.1999999927384859
 20
22.215777363973299
 30
6.4115476299208058
 70
    64
  0
VERTEX
  5
1515D9
  8
CROMAT
 10
1.1999999927384859
 20
22.412468093434299
 30
6.5840407484881229
 70
    64
  0
VERTEX
  5
1515DA
  8
CROMAT
 10
1.1999999927384859
 20
22.584961234603991
 30
6.7807314581273728
 70
    64
  0
VERTEX
  5
1515DB
  8
CROMAT
 10
1.1999999927384859
 20
22.730305381581609
 30
6.9982543257719616
 70
    64
  0
VERTEX
  5
1515DC
  8
CROMAT
 10
1.1999999927384859
 20
22.846013655352021
 30
7.232887474303979
 70
    64
  0
VERTEX
  5
1515DD
  8
CROMAT
 10
1.1999999927384859
 20
22.930106254981371
 30
7.4806162649128929
 70
    64
  0
VERTEX
  5
1515DE
  8
CROMAT
 10
1.1999999927384859
 20
22.981144332564899
 30
7.7372019886886996
 70
    64
  0
VERTEX
  5
1515DF
  8
CROMAT
 10
1.1999999927384859
 20
22.998254612317151
 30
7.9982543921171629
 70
    64
  0
SEQEND
  5
1515E0
  8
CROMAT
  0
POLYLINE
  5
1515E1
  8
CROMAT
 66
     1
 10
0.0
 20
0.0
 30
0.0
 70
    16
 71
     2
 72
    13
  0
VERTEX
  5
1515E2
  8
CROMAT
 10
0.7999999927313607
 20
3.998254382490634
 30
10.691074750393531
 70
    64
  0
VERTEX
  5
1515E3
  8
CROMAT
 10
0.803044216483097
 20
3.998254382490634
 30
10.621350149570841
 70
    64
  0
VERTEX
  5
1515E4
  8
CROMAT
 10
0.8121537583927299
 20
3.998254382490634
 30
10.552156193878661
 70
    64
  0
VERTEX
  5
1515E5
  8
CROMAT
 10
0.8272592892775429
 20
3.998254382490634
 30
10.484019491619
 70
    64
  0
VERTEX
  5
1515E6
  8
CROMAT
 10
0.8482458468132927
 20
3.998254382490634
 30
10.417458604748919
 70
    64
  0
VERTEX
  5
1515E7
  8
CROMAT
 10
0.8749537104677715
 20
3.998254382490634
 30
10.352980102307029
 70
    64
  0
VERTEX
  5
1515E8
  8
CROMAT
 10
0.9071796170716989
 20
3.998254382490634
 30
10.2910747051135
 70
    64
  0
VERTEX
  5
1515E9
  8
CROMAT
 10
0.9446783077756961
 20
3.998254382490634
 30
10.23221355108455
 70
    64
  0
VERTEX
  5
1515EA
  8
CROMAT
 10
0.9871643946200606
 20
3.998254382490634
 30
10.17684460958494
 70
    64
  0
VERTEX
  5
1515EB
  8
CROMAT
 10
1.034314532511599
 20
3.998254382490634
 30
10.12538927210726
 70
    64
  0
VERTEX
  5
1515EC
  8
CROMAT
 10
1.085769880077456
 20
3.998254382490634
 30
10.07823914522502
 70
    64
  0
VERTEX
  5
1515ED
  8
CROMAT
 10
1.14113883066732
 20
3.998254382490634
 30
10.035753070227321
 70
    64
  0
VERTEX
  5
1515EE
  8
CROMAT
 10
1.19999999271943
 20
3.998254382490634
 30
9.9982543921171612
 70
    64
  0
VERTEX
  5
1515EF
  8
CROMAT
 10
0.7999999927313607
 20
20.998254382490639
 30
10.691074750393531
 70
    64
  0
VERTEX
  5
1515F0
  8
CROMAT
 10
0.8030442164830972
 20
20.998254382490639
 30
10.621350149570841
 70
    64
  0
VERTEX
  5
1515F1
  8
CROMAT
 10
0.8121537583927302
 20
20.998254382490639
 30
10.552156193878661
 70
    64
  0
VERTEX
  5
1515F2
  8
CROMAT
 10
0.8272592892775436
 20
20.998254382490639
 30
10.484019491619
 70
    64
  0
VERTEX
  5
1515F3
  8
CROMAT
 10
0.8482458468132932
 20
20.998254382490639
 30
10.41745860474891
 70
    64
  0
VERTEX
  5
1515F4
  8
CROMAT
 10
0.874953710467772
 20
20.998254382490639
 30
10.352980102307029
 70
    64
  0
VERTEX
  5
1515F5
  8
CROMAT
 10
0.9071796170716993
 20
20.998254382490639
 30
10.2910747051135
 70
    64
  0
VERTEX
  5
1515F6
  8
CROMAT
 10
0.9446783077756965
 20
20.998254382490639
 30
10.23221355108455
 70
    64
  0
VERTEX
  5
1515F7
  8
CROMAT
 10
0.9871643946200606
 20
20.998254382490639
 30
10.17684460958494
 70
    64
  0
VERTEX
  5
1515F8
  8
CROMAT
 10
1.034314532511599
 20
20.998254382490639
 30
10.12538927210726
 70
    64
  0
VERTEX
  5
1515F9
  8
CROMAT
 10
1.085769880077456
 20
20.998254382490639
 30
10.07823914522502
 70
    64
  0
VERTEX
  5
1515FA
  8
CROMAT
 10
1.14113883066732
 20
20.998254382490639
 30
10.035753070227321
 70
    64
  0
VERTEX
  5
1515FB
  8
CROMAT
 10
1.19999999271943
 20
20.998254382490639
 30
9.9982543921171612
 70
    64
  0
SEQEND
  5
1515FC
  8
CROMAT
  0
POLYLINE
  5
1515FD
  8
CROMAT
 66
     1
 10
0.0
 20
0.0
 30
0.0
 70
    16
 71
     2
 72
    13
  0
VERTEX
  5
1515FE
  8
CROMAT
 10
0.7999999927313607
 20
20.998254382490639
 30
5.3054340338407959
 70
    64
  0
VERTEX
  5
1515FF
  8
CROMAT
 10
0.803044216483097
 20
20.998254382490639
 30
5.3751586346634843
 70
    64
  0
VERTEX
  5
151600
  8
CROMAT
 10
0.8121537583927294
 20
20.998254382490639
 30
5.4443525903556571
 70
    64
  0
VERTEX
  5
151601
  8
CROMAT
 10
0.8272592892775424
 20
20.998254382490639
 30
5.5124892926153191
 70
    64
  0
VERTEX
  5
151602
  8
CROMAT
 10
0.8482458468132919
 20
20.998254382490639
 30
5.5790501794854057
 70
    64
  0
VERTEX
  5
151603
  8
CROMAT
 10
0.8749537104677704
 20
20.998254382490639
 30
5.6435286819272861
 70
    64
  0
VERTEX
  5
151604
  8
CROMAT
 10
0.9071796170716975
 20
20.998254382490639
 30
5.7054340791208169
 70
    64
  0
VERTEX
  5
151605
  8
CROMAT
 10
0.9446783077756942
 20
20.998254382490639
 30
5.7642952331497668
 70
    64
  0
VERTEX
  5
151606
  8
CROMAT
 10
0.9871643946200581
 20
20.998254382490639
 30
5.8196641746493762
 70
    64
  0
VERTEX
  5
151607
  8
CROMAT
 10
1.0343145325115961
 20
20.998254382490639
 30
5.8711195121270627
 70
    64
  0
VERTEX
  5
151608
  8
CROMAT
 10
1.0857698800774529
 20
20.998254382490639
 30
5.9182696390092966
 70
    64
  0
VERTEX
  5
151609
  8
CROMAT
 10
1.141138830667316
 20
20.998254382490639
 30
5.9607557140070071
 70
    64
  0
VERTEX
  5
15160A
  8
CROMAT
 10
1.1999999927194289
 20
20.998254382490639
 30
5.9982543921171638
 70
    64
  0
VERTEX
  5
15160B
  8
CROMAT
 10
0.7999999927313607
 20
3.998254382490634
 30
5.3054340338407959
 70
    64
  0
VERTEX
  5
15160C
  8
CROMAT
 10
0.803044216483097
 20
3.998254382490634
 30
5.3751586346634834
 70
    64
  0
VERTEX
  5
15160D
  8
CROMAT
 10
0.8121537583927294
 20
3.998254382490634
 30
5.4443525903556571
 70
    64
  0
VERTEX
  5
15160E
  8
CROMAT
 10
0.8272592892775424
 20
3.998254382490634
 30
5.5124892926153191
 70
    64
  0
VERTEX
  5
15160F
  8
CROMAT
 10
0.8482458468132919
 20
3.998254382490634
 30
5.5790501794854057
 70
    64
  0
VERTEX
  5
151610
  8
CROMAT
 10
0.8749537104677706
 20
3.998254382490634
 30
5.643528681927287
 70
    64
  0
VERTEX
  5
151611
  8
CROMAT
 10
0.9071796170716979
 20
3.998254382490634
 30
5.7054340791208178
 70
    64
  0
VERTEX
  5
151612
  8
CROMAT
 10
0.9446783077756947
 20
3.998254382490634
 30
5.7642952331497694
 70
    64
  0
VERTEX
  5
151613
  8
CROMAT
 10
0.9871643946200592
 20
3.998254382490634
 30
5.8196641746493771
 70
    64
  0
VERTEX
  5
151614
  8
CROMAT
 10
1.0343145325115981
 20
3.998254382490634
 30
5.8711195121270636
 70
    64
  0
VERTEX
  5
151615
  8
CROMAT
 10
1.085769880077454
 20
3.998254382490634
 30
5.9182696390092984
 70
    64
  0
VERTEX
  5
151616
  8
CROMAT
 10
1.1411388306673189
 20
3.998254382490634
 30
5.960755714007008
 70
    64
  0
VERTEX
  5
151617
  8
CROMAT
 10
1.1999999927194289
 20
3.998254382490634
 30
5.9982543921171638
 70
    64
  0
SEQEND
  5
151618
  8
CROMAT
  0
3DFACE
  5
151619
  8
CROMAT
 10
0.4247818397386083
 20
3.9982543824906331
 30
6.3015289282499758
 11
1.1999999927384859
 21
3.9982543824906318
 31
6.2947635626493899
 12
1.1999999927384859
 22
20.998254382490639
 32
6.2947635626493899
 13
0.4247818397386083
 23
20.998254382490639
 33
6.3015289282499758
  0
3DFACE
  5
15161A
  8
CROMAT
 10
1.1999999927384859
 20
20.998254382490639
 30
6.2947635626493899
 11
1.1999999927194289
 21
20.998254382490639
 31
5.9982543921171638
 12
1.1999999927194289
 22
3.998254382490634
 32
5.9982543921171638
 13
1.1999999927384859
 23
3.9982543824906318
 33
6.2947635626493899
  0
POLYLINE
  5
15161B
  8
CROMAT
 66
     1
 10
0.0
 20
0.0
 30
0.0
 70
    16
 71
     2
 72
    13
  0
VERTEX
  5
15161C
  8
CROMAT
 10
0.4247818397386083
 20
3.9982543824906331
 30
6.3015289282499758
 70
    64
  0
VERTEX
  5
15161D
  8
CROMAT
 10
0.4247818397386083
 20
3.7760547867093588
 30
6.3149165940757923
 70
    64
  0
VERTEX
  5
15161E
  8
CROMAT
 10
0.4247818397386083
 20
3.5575288221245751
 30
6.3573228762037166
 70
    64
  0
VERTEX
  5
15161F
  8
CROMAT
 10
0.4247818397386083
 20
3.3464496141637969
 30
6.4280155768755236
 70
    64
  0
VERTEX
  5
151620
  8
CROMAT
 10
0.4247818397386083
 20
3.1464617106421571
 30
6.5257740977657388
 70
    64
  0
VERTEX
  5
151621
  8
CROMAT
 10
0.4247818397386083
 20
2.9610181540638161
 30
6.6489105151458094
 70
    64
  0
VERTEX
  5
151622
  8
CROMAT
 10
0.4247818397386083
 20
2.7933208605032531
 30
6.7952987240086999
 70
    64
  0
VERTEX
  5
151623
  8
CROMAT
 10
0.4247818397386083
 20
2.646265334499994
 30
6.9624111479439907
 70
    64
  0
VERTEX
  5
151624
  8
CROMAT
 10
0.4247818397386083
 20
2.522390674533594
 30
7.1473623809213143
 70
    64
  0
VERTEX
  5
151625
  8
CROMAT
 10
0.4247818397386083
 20
2.423835732297178
 30
7.3469590074519253
 70
    64
  0
VERTEX
  5
151626
  8
CROMAT
 10
0.4247818397386083
 20
2.352302182734805
 30
7.5577547409206813
 70
    64
  0
VERTEX
  5
151627
  8
CROMAT
 10
0.4247818397386083
 20
2.3090251424848458
 30
7.7761099280558321
 70
    64
  0
VERTEX
  5
151628
  8
CROMAT
 10
0.4247818397386083
 20
2.2947518440388932
 30
7.9982543921171629
 70
    64
  0
VERTEX
  5
151629
  8
CROMAT
 10
0.4247818397386083
 20
20.998254382490639
 30
6.3015289282499758
 70
    64
  0
VERTEX
  5
15162A
  8
CROMAT
 10
0.4247818397386083
 20
21.220453978271909
 30
6.3149165940757923
 70
    64
  0
VERTEX
  5
15162B
  8
CROMAT
 10
0.4247818397386083
 20
21.43897994285669
 30
6.3573228762037157
 70
    64
  0
VERTEX
  5
15162C
  8
CROMAT
 10
0.4247818397386083
 20
21.650059150817459
 30
6.4280155768755227
 70
    64
  0
VERTEX
  5
15162D
  8
CROMAT
 10
0.4247818397386083
 20
21.850047054339111
 30
6.525774097765737
 70
    64
  0
VERTEX
  5
15162E
  8
CROMAT
 10
0.4247818397386083
 20
22.035490610917449
 30
6.6489105151458059
 70
    64
  0
VERTEX
  5
15162F
  8
CROMAT
 10
0.4247818397386083
 20
22.203187904478021
 30
6.7952987240086982
 70
    64
  0
VERTEX
  5
151630
  8
CROMAT
 10
0.4247818397386083
 20
22.350243430481271
 30
6.9624111479439881
 70
    64
  0
VERTEX
  5
151631
  8
CROMAT
 10
0.4247818397386083
 20
22.474118090447671
 30
7.1473623809213107
 70
    64
  0
VERTEX
  5
151632
  8
CROMAT
 10
0.4247818397386083
 20
22.57267303268409
 30
7.3469590074519209
 70
    64
  0
VERTEX
  5
151633
  8
CROMAT
 10
0.4247818397386083
 20
22.644206582246461
 30
7.5577547409206769
 70
    64
  0
VERTEX
  5
151634
  8
CROMAT
 10
0.4247818397386083
 20
22.687483622496419
 30
7.7761099280558277
 70
    64
  0
VERTEX
  5
151635
  8
CROMAT
 10
0.4247818397386083
 20
22.701756920942369
 30
7.9982543921171629
 70
    64
  0
SEQEND
  5
151636
  8
CROMAT
  0
POLYLINE
  5
151637
  8
CROMAT
 66
     1
 10
0.0
 20
0.0
 30
0.0
 70
    16
 71
     2
 72
    13
  0
VERTEX
  5
151638
  8
CROMAT
 10
0.4247818397386083
 20
22.701756920942369
 30
7.9982543921171629
 70
    64
  0
VERTEX
  5
151639
  8
CROMAT
 10
0.4247818397386083
 20
22.687483622496419
 30
8.2203988561784946
 70
    64
  0
VERTEX
  5
15163A
  8
CROMAT
 10
0.4247818397386083
 20
22.644206582246461
 30
8.4387540433136472
 70
    64
  0
VERTEX
  5
15163B
  8
CROMAT
 10
0.4247818397386083
 20
22.57267303268409
 30
8.6495497767824006
 70
    64
  0
VERTEX
  5
15163C
  8
CROMAT
 10
0.4247818397386083
 20
22.474118090447678
 30
8.8491464033130143
 70
    64
  0
VERTEX
  5
15163D
  8
CROMAT
 10
0.4247818397386083
 20
22.350243430481271
 30
9.0340976362903351
 70
    64
  0
VERTEX
  5
15163E
  8
CROMAT
 10
0.4247818397386083
 20
22.203187904478021
 30
9.2012100602256268
 70
    64
  0
VERTEX
  5
15163F
  8
CROMAT
 10
0.4247818397386083
 20
22.035490610917449
 30
9.3475982690885182
 70
    64
  0
VERTEX
  5
151640
  8
CROMAT
 10
0.4247818397386083
 20
21.850047054339111
 30
9.4707346864685888
 70
    64
  0
VERTEX
  5
151641
  8
CROMAT
 10
0.4247818397386083
 20
21.650059150817469
 30
9.5684932073588023
 70
    64
  0
VERTEX
  5
151642
  8
CROMAT
 10
0.4247818397386083
 20
21.43897994285669
 30
9.6391859080306084
 70
    64
  0
VERTEX
  5
151643
  8
CROMAT
 10
0.4247818397386083
 20
21.220453978271909
 30
9.6815921901585362
 70
    64
  0
VERTEX
  5
151644
  8
CROMAT
 10
0.4247818397386083
 20
20.998254382490639
 30
9.6949798559843501
 70
    64
  0
VERTEX
  5
151645
  8
CROMAT
 10
0.4247818397386083
 20
2.2947518440388932
 30
7.9982543921171629
 70
    64
  0
VERTEX
  5
151646
  8
CROMAT
 10
0.4247818397386083
 20
2.3090251424848458
 30
8.2203988561784946
 70
    64
  0
VERTEX
  5
151647
  8
CROMAT
 10
0.4247818397386083
 20
2.352302182734805
 30
8.4387540433136436
 70
    64
  0
VERTEX
  5
151648
  8
CROMAT
 10
0.4247818397386083
 20
2.423835732297178
 30
8.6495497767824006
 70
    64
  0
VERTEX
  5
151649
  8
CROMAT
 10
0.4247818397386083
 20
2.522390674533594
 30
8.8491464033130143
 70
    64
  0
VERTEX
  5
15164A
  8
CROMAT
 10
0.4247818397386083
 20
2.6462653344999949
 30
9.0340976362903351
 70
    64
  0
VERTEX
  5
15164B
  8
CROMAT
 10
0.4247818397386083
 20
2.793320860503254
 30
9.2012100602256268
 70
    64
  0
VERTEX
  5
15164C
  8
CROMAT
 10
0.4247818397386083
 20
2.961018154063817
 30
9.3475982690885218
 70
    64
  0
VERTEX
  5
15164D
  8
CROMAT
 10
0.4247818397386083
 20
3.1464617106421602
 30
9.4707346864685888
 70
    64
  0
VERTEX
  5
15164E
  8
CROMAT
 10
0.4247818397386083
 20
3.3464496141638
 30
9.5684932073588058
 70
    64
  0
VERTEX
  5
15164F
  8
CROMAT
 10
0.4247818397386083
 20
3.5575288221245791
 30
9.6391859080306102
 70
    64
  0
VERTEX
  5
151650
  8
CROMAT
 10
0.4247818397386083
 20
3.7760547867093641
 30
9.6815921901585362
 70
    64
  0
VERTEX
  5
151651
  8
CROMAT
 10
0.4247818397386083
 20
3.998254382490634
 30
9.6949798559843501
 70
    64
  0
SEQEND
  5
151652
  8
CROMAT
  0
3DFACE
  5
151653
  8
CROMAT
 10
0.4247818397386083
 20
3.998254382490634
 30
9.6949798559843501
 11
1.1999999927384859
 21
3.998254382490634
 31
9.701745221584936
 12
1.1999999927384859
 22
20.998254382490639
 32
9.701745221584936
 13
0.4247818397386083
 23
20.998254382490639
 33
9.6949798559843501
  0
3DFACE
  5
151654
  8
CROMAT
 10
1.19999999271943
 20
20.998254382490639
 30
9.9982543921171612
 11
1.1999999927384859
 21
20.998254382490639
 31
9.701745221584936
 12
1.1999999927384859
 22
3.998254382490634
 32
9.701745221584936
 13
1.1999999927384859
 23
3.998254382490634
 33
9.9982543921171647
  0
POLYLINE
  5
151655
  8
CROMAT
 66
     1
 10
0.0
 20
0.0
 30
0.0
 70
    16
 71
     2
 72
    13
  0
VERTEX
  5
151656
  8
CROMAT
 10
0.7999999927313608
 20
1.305407309600298
 30
7.9982543921171629
 70
    64
  0
VERTEX
  5
151657
  8
CROMAT
 10
0.7999999927313608
 20
1.328445051641119
 30
7.6467685972402579
 70
    64
  0
VERTEX
  5
151658
  8
CROMAT
 10
0.7999999927313608
 20
1.3971640906380409
 30
7.3012968976208414
 70
    64
  0
VERTEX
  5
151659
  8
CROMAT
 10
0.7999999927313608
 20
1.5103886099505219
 30
6.9677504843811731
 70
    64
  0
VERTEX
  5
15165A
  8
CROMAT
 10
0.7999999927313608
 20
1.6661812822254971
 30
6.6518365011135581
 70
    64
  0
VERTEX
  5
15165B
  8
CROMAT
 10
0.7999999927313608
 20
1.86187641802363
 30
6.3589603918394477
 70
    64
  0
VERTEX
  5
15165C
  8
CROMAT
 10
0.7999999927313608
 20
2.09412557707999
 30
6.094133411196986
 70
    64
  0
VERTEX
  5
15165D
  8
CROMAT
 10
0.7999999927313608
 20
2.3589548617680012
 30
5.8618868794032331
 70
    64
  0
VERTEX
  5
15165E
  8
CROMAT
 10
0.7999999927313608
 20
2.6518329124472442
 30
5.6661946491310102
 70
    64
  0
VERTEX
  5
15165F
  8
CROMAT
 10
0.7999999927313608
 20
2.9677484412611799
 30
5.5104051109302654
 70
    64
  0
VERTEX
  5
151660
  8
CROMAT
 10
0.7999999927313608
 20
3.3012959777432931
 30
5.3971839006147784
 70
    64
  0
VERTEX
  5
151661
  8
CROMAT
 10
0.7999999927313608
 20
3.6467683590820501
 30
5.328468288919046
 70
    64
  0
VERTEX
  5
151662
  8
CROMAT
 10
0.7999999927313608
 20
3.9982543824906331
 30
5.3054340338407968
 70
    64
  0
VERTEX
  5
151663
  8
CROMAT
 10
0.8004363195998678
 20
0.0565490602250087
 30
7.9982543921171629
 70
    64
  0
VERTEX
  5
151664
  8
CROMAT
 10
0.8004363195998678
 20
0.0565488694901454
 30
7.3364456152616953
 70
    64
  0
VERTEX
  5
151665
  8
CROMAT
 10
0.8004363195998678
 20
0.0565486787552822
 30
6.6746368384062258
 70
    64
  0
VERTEX
  5
151666
  8
CROMAT
 10
0.8004363195998678
 20
0.0565484880204189
 30
6.0128280615507572
 70
    64
  0
VERTEX
  5
151667
  8
CROMAT
 10
0.8004363195998678
 20
0.0565482972855557
 30
5.3510192846952878
 70
    64
  0
VERTEX
  5
151668
  8
CROMAT
 10
0.8004363195998678
 20
0.0565481065506924
 30
4.6892105078398201
 70
    64
  0
VERTEX
  5
151669
  8
CROMAT
 10
0.8004363195998678
 20
0.0565479158158292
 30
4.0274017309843506
 70
    64
  0
VERTEX
  5
15166A
  8
CROMAT
 10
0.8004363195998678
 20
0.0565477250809659
 30
3.365592954128882
 70
    64
  0
VERTEX
  5
15166B
  8
CROMAT
 10
0.8004363195998678
 20
0.0565475343461027
 30
2.703784177273413
 70
    64
  0
VERTEX
  5
15166C
  8
CROMAT
 10
0.8004363195998678
 20
0.0565473436112394
 30
2.0419754004179449
 70
    64
  0
VERTEX
  5
15166D
  8
CROMAT
 10
0.8004363195998678
 20
0.0565471528763762
 30
1.3801666235624761
 70
    64
  0
VERTEX
  5
15166E
  8
CROMAT
 10
0.8004363195998678
 20
0.0565469621415129
 30
0.7183578467070088
 70
    64
  0
VERTEX
  5
15166F
  8
CROMAT
 10
0.8004363195998678
 20
0.0565467714066497
 30
0.0565490698515385
 70
    64
  0
SEQEND
  5
151670
  8
CROMAT
  0
3DFACE
  5
151671
  8
CROMAT
 10
0.8004363195998676
 20
0.0565467714066497
 30
15.93995971438278
 11
0.7999999927313607
 21
3.998254382490634
 31
10.691074750393531
 12
0.7999999927313608
 22
20.998254382490639
 32
10.691074750393531
 13
0.8004363195998676
 23
24.93996199357462
 33
15.93995971438278
  0
3DFACE
  5
151672
  8
CROMAT
 10
0.7999999927313607
 20
3.998254382490634
 30
5.3054340338407959
 11
0.8004363195998678
 21
0.0565467714066497
 31
0.0565490698515385
 12
0.8004363195998678
 22
24.939959704756259
 32
0.0565467810331792
 13
0.7999999927313608
 23
20.998254382490639
 33
5.3054340338407968
  0
POLYLINE
  5
151673
  8
CROMAT
 66
     1
 10
0.0
 20
0.0
 30
0.0
 70
    16
 71
     2
 72
     7
  0
VERTEX
  5
151674
  8
CROMAT
 10
0.8004363195998678
 20
0.0565490602250087
 30
0.0565467810331792
 70
    64
  0
VERTEX
  5
151675
  8
CROMAT
 10
0.7987326109143212
 20
0.0436081079698827
 30
0.0565467810331792
 70
    64
  0
VERTEX
  5
151676
  8
CROMAT
 10
0.7937375897890897
 20
0.0315490602250087
 30
0.0565467810331792
 70
    64
  0
VERTEX
  5
151677
  8
CROMAT
 10
0.7857916586591952
 20
0.0211937211656814
 30
0.0565467810331792
 70
    64
  0
VERTEX
  5
151678
  8
CROMAT
 10
0.775436319599868
 20
0.0132477900357869
 30
0.0565467810331792
 70
    64
  0
VERTEX
  5
151679
  8
CROMAT
 10
0.7633772718549939
 20
0.0082527689105554
 30
0.0565467810331792
 70
    64
  0
VERTEX
  5
15167A
  8
CROMAT
 10
0.7504363195998679
 20
0.0065490602250087
 30
0.0565467810331792
 70
    64
  0
VERTEX
  5
15167B
  8
CROMAT
 10
0.8004363195998676
 20
0.0565467714066497
 30
15.93995971438278
 70
    64
  0
VERTEX
  5
15167C
  8
CROMAT
 10
0.798732610914321
 20
0.0436058191515236
 30
15.93995971438278
 70
    64
  0
VERTEX
  5
15167D
  8
CROMAT
 10
0.7937375897890896
 20
0.0315467714066497
 30
15.93995971438278
 70
    64
  0
VERTEX
  5
15167E
  8
CROMAT
 10
0.7857916586591949
 20
0.0211914323473223
 30
15.93995971438278
 70
    64
  0
VERTEX
  5
15167F
  8
CROMAT
 10
0.7754363195998675
 20
0.0132455012174277
 30
15.93995971438278
 70
    64
  0
VERTEX
  5
151680
  8
CROMAT
 10
0.7633772718549937
 20
0.0082504800921962
 30
15.93995971438278
 70
    64
  0
VERTEX
  5
151681
  8
CROMAT
 10
0.7504363195998676
 20
0.0065467714066497
 30
15.93995971438278
 70
    64
  0
SEQEND
  5
151682
  8
CROMAT
  0
POLYLINE
  5
151683
  8
CROMAT
 66
     1
 10
0.0
 20
0.0
 30
0.0
 70
    16
 71
     2
 72
    13
  0
VERTEX
  5
151684
  8
CROMAT
 10
0.7999999927313608
 20
1.305407309600298
 30
7.9982543921171629
 70
    64
  0
VERTEX
  5
151685
  8
CROMAT
 10
0.7999999927313608
 20
1.3284450516411199
 30
8.3497401869940724
 70
    64
  0
VERTEX
  5
151686
  8
CROMAT
 10
0.7999999927313608
 20
1.397164090638042
 30
8.6952118866134889
 70
    64
  0
VERTEX
  5
151687
  8
CROMAT
 10
0.7999999927313608
 20
1.510388609950523
 30
9.0287582998531555
 70
    64
  0
VERTEX
  5
151688
  8
CROMAT
 10
0.7999999927313608
 20
1.6661812822254991
 30
9.3446722831207722
 70
    64
  0
VERTEX
  5
151689
  8
CROMAT
 10
0.7999999927313608
 20
1.861876418023632
 30
9.6375483923948781
 70
    64
  0
VERTEX
  5
15168A
  8
CROMAT
 10
0.7999999927313608
 20
2.0941255770799918
 30
9.9023753730373443
 70
    64
  0
VERTEX
  5
15168B
  8
CROMAT
 10
0.7999999927313608
 20
2.358954861768003
 30
10.134621904831089
 70
    64
  0
VERTEX
  5
15168C
  8
CROMAT
 10
0.7999999927313608
 20
2.6518329124472451
 30
10.33031413510332
 70
    64
  0
VERTEX
  5
15168D
  8
CROMAT
 10
0.7999999927313608
 20
2.9677484412611799
 30
10.48610367330406
 70
    64
  0
VERTEX
  5
15168E
  8
CROMAT
 10
0.7999999927313608
 20
3.3012959777432931
 30
10.59932488361955
 70
    64
  0
VERTEX
  5
15168F
  8
CROMAT
 10
0.7999999927313608
 20
3.6467683590820492
 30
10.66804049531528
 70
    64
  0
VERTEX
  5
151690
  8
CROMAT
 10
0.7999999927313608
 20
3.998254382490634
 30
10.691074750393531
 70
    64
  0
VERTEX
  5
151691
  8
CROMAT
 10
0.8004363195998678
 20
0.0565490602250087
 30
7.9982543921171629
 70
    64
  0
VERTEX
  5
151692
  8
CROMAT
 10
0.8004363195998678
 20
0.0565488694901454
 30
8.6600631689726342
 70
    64
  0
VERTEX
  5
151693
  8
CROMAT
 10
0.8004363195998678
 20
0.0565486787552822
 30
9.3218719458281001
 70
    64
  0
VERTEX
  5
151694
  8
CROMAT
 10
0.8004363195998678
 20
0.0565484880204189
 30
9.9836807226835695
 70
    64
  0
VERTEX
  5
151695
  8
CROMAT
 10
0.8004363195998678
 20
0.0565482972855557
 30
10.645489499539041
 70
    64
  0
VERTEX
  5
151696
  8
CROMAT
 10
0.8004363195998678
 20
0.0565481065506924
 30
11.30729827639451
 70
    64
  0
VERTEX
  5
151697
  8
CROMAT
 10
0.8004363195998678
 20
0.0565479158158292
 30
11.969107053249971
 70
    64
  0
VERTEX
  5
151698
  8
CROMAT
 10
0.8004363195998678
 20
0.0565477250809659
 30
12.63091583010544
 70
    64
  0
VERTEX
  5
151699
  8
CROMAT
 10
0.8004363195998678
 20
0.0565475343461027
 30
13.29272460696091
 70
    64
  0
VERTEX
  5
15169A
  8
CROMAT
 10
0.8004363195998678
 20
0.0565473436112394
 30
13.954533383816379
 70
    64
  0
VERTEX
  5
15169B
  8
CROMAT
 10
0.8004363195998678
 20
0.0565471528763762
 30
14.61634216067185
 70
    64
  0
VERTEX
  5
15169C
  8
CROMAT
 10
0.8004363195998678
 20
0.0565469621415129
 30
15.27815093752732
 70
    64
  0
VERTEX
  5
15169D
  8
CROMAT
 10
0.8004363195998678
 20
0.0565467714066497
 30
15.93995971438278
 70
    64
  0
SEQEND
  5
15169E
  8
CROMAT
  0
POLYLINE
  5
15169F
  8
CROMAT
 66
     1
 10
0.0
 20
0.0
 30
0.0
 70
    16
 71
     7
 72
     7
  0
VERTEX
  5
1516A0
  8
CROMAT
 10
0.7504363195998676
 20
24.93996199357462
 30
0.0065490698515385
 70
    64
  0
VERTEX
  5
1516A1
  8
CROMAT
 10
0.7633772718549939
 20
24.93996199357462
 30
0.0082527785370851
 70
    64
  0
VERTEX
  5
1516A2
  8
CROMAT
 10
0.775436319599868
 20
24.93996199357462
 30
0.0132477996623165
 70
    64
  0
VERTEX
  5
1516A3
  8
CROMAT
 10
0.7857916586591954
 20
24.93996199357462
 30
0.0211937307922111
 70
    64
  0
VERTEX
  5
1516A4
  8
CROMAT
 10
0.7937375897890899
 20
24.93996199357462
 30
0.0315490698515385
 70
    64
  0
VERTEX
  5
1516A5
  8
CROMAT
 10
0.7987326109143214
 20
24.93996199357462
 30
0.0436081175964125
 70
    64
  0
VERTEX
  5
1516A6
  8
CROMAT
 10
0.8004363195998676
 20
24.93996199357462
 30
0.0565490698515385
 70
    64
  0
VERTEX
  5
1516A7
  8
CROMAT
 10
0.7504363195998676
 20
24.93996199357462
 30
0.0065490698515385
 70
    64
  0
VERTEX
  5
1516A8
  8
CROMAT
 10
0.7629363195998679
 20
24.94331135848001
 30
0.0082527785370851
 70
    64
  0
VERTEX
  5
1516A9
  8
CROMAT
 10
0.7745844652570946
 20
24.946432469702181
 30
0.0132477996623165
 70
    64
  0
VERTEX
  5
1516AA
  8
CROMAT
 10
0.7845869546944789
 20
24.94911262866923
 30
0.0211937307922111
 70
    64
  0
VERTEX
  5
1516AB
  8
CROMAT
 10
0.7922621347867583
 20
24.95116918697672
 30
0.0315490698515385
 70
    64
  0
VERTEX
  5
1516AC
  8
CROMAT
 10
0.7970869546944788
 20
24.952461993574619
 30
0.0436081175964125
 70
    64
  0
VERTEX
  5
1516AD
  8
CROMAT
 10
0.798732610914321
 20
24.952902945829742
 30
0.0565490698515385
 70
    64
  0
VERTEX
  5
1516AE
  8
CROMAT
 10
0.7504363195998676
 20
24.93996199357462
 30
0.0065490698515385
 70
    64
  0
VERTEX
  5
1516AF
  8
CROMAT
 10
0.7616435130019685
 20
24.946432469702181
 30
0.0082527785370851
 70
    64
  0
VERTEX
  5
1516B0
  8
CROMAT
 10
0.7720869546944789
 20
24.952461993574619
 30
0.0132477996623165
 70
    64
  0
VERTEX
  5
1516B1
  8
CROMAT
 10
0.7810549413846577
 20
24.957639663104281
 30
0.0211937307922111
 70
    64
  0
VERTEX
  5
1516B2
  8
CROMAT
 10
0.7879363195998681
 20
24.961612628669229
 30
0.0315490698515385
 70
    64
  0
VERTEX
  5
1516B3
  8
CROMAT
 10
0.7922621347867586
 20
24.964110139231838
 30
0.0436081175964125
 70
    64
  0
VERTEX
  5
1516B4
  8
CROMAT
 10
0.7937375897890897
 20
24.964961993574619
 30
0.0565490698515385
 70
    64
  0
VERTEX
  5
1516B5
  8
CROMAT
 10
0.7504363195998676
 20
24.93996199357462
 30
0.0065490698515385
 70
    64
  0
VERTEX
  5
1516B6
  8
CROMAT
 10
0.7595869546944787
 20
24.94911262866923
 30
0.0082527785370851
 70
    64
  0
VERTEX
  5
1516B7
  8
CROMAT
 10
0.7681139891295317
 20
24.957639663104281
 30
0.0132477996623165
 70
    64
  0
VERTEX
  5
1516B8
  8
CROMAT
 10
0.775436319599868
 20
24.964961993574619
 30
0.0211937307922111
 70
    64
  0
VERTEX
  5
1516B9
  8
CROMAT
 10
0.7810549413846577
 20
24.97058061535941
 30
0.0315490698515385
 70
    64
  0
VERTEX
  5
1516BA
  8
CROMAT
 10
0.7845869546944789
 20
24.974112628669229
 30
0.0436081175964125
 70
    64
  0
VERTEX
  5
1516BB
  8
CROMAT
 10
0.7857916586591952
 20
24.975317332633939
 30
0.0565490698515385
 70
    64
  0
VERTEX
  5
1516BC
  8
CROMAT
 10
0.7504363195998676
 20
24.93996199357462
 30
0.0065490698515385
 70
    64
  0
VERTEX
  5
1516BD
  8
CROMAT
 10
0.756906795727431
 20
24.95116918697672
 30
0.0082527785370851
 70
    64
  0
VERTEX
  5
1516BE
  8
CROMAT
 10
0.7629363195998679
 20
24.961612628669229
 30
0.0132477996623165
 70
    64
  0
VERTEX
  5
1516BF
  8
CROMAT
 10
0.7681139891295317
 20
24.97058061535941
 30
0.0211937307922111
 70
    64
  0
VERTEX
  5
1516C0
  8
CROMAT
 10
0.7720869546944789
 20
24.977461993574622
 30
0.0315490698515385
 70
    64
  0
VERTEX
  5
1516C1
  8
CROMAT
 10
0.7745844652570946
 20
24.98178780876151
 30
0.0436081175964125
 70
    64
  0
VERTEX
  5
1516C2
  8
CROMAT
 10
0.7754363195998677
 20
24.983263263763838
 30
0.0565490698515385
 70
    64
  0
VERTEX
  5
1516C3
  8
CROMAT
 10
0.7504363195998679
 20
24.93996199357462
 30
0.0065490698515385
 70
    64
  0
VERTEX
  5
1516C4
  8
CROMAT
 10
0.7537856845052569
 20
24.952461993574619
 30
0.0082527785370851
 70
    64
  0
VERTEX
  5
1516C5
  8
CROMAT
 10
0.756906795727431
 20
24.964110139231838
 30
0.0132477996623165
 70
    64
  0
VERTEX
  5
1516C6
  8
CROMAT
 10
0.7595869546944787
 20
24.974112628669229
 30
0.0211937307922111
 70
    64
  0
VERTEX
  5
1516C7
  8
CROMAT
 10
0.7616435130019685
 20
24.98178780876151
 30
0.0315490698515385
 70
    64
  0
VERTEX
  5
1516C8
  8
CROMAT
 10
0.7629363195998679
 20
24.986612628669231
 30
0.0436081175964125
 70
    64
  0
VERTEX
  5
1516C9
  8
CROMAT
 10
0.7633772718549939
 20
24.988258284889071
 30
0.0565490698515385
 70
    64
  0
VERTEX
  5
1516CA
  8
CROMAT
 10
0.7504363195998679
 20
24.93996199357462
 30
0.0065490698515385
 70
    64
  0
VERTEX
  5
1516CB
  8
CROMAT
 10
0.7504363195998679
 20
24.952902945829742
 30
0.0082527785370851
 70
    64
  0
VERTEX
  5
1516CC
  8
CROMAT
 10
0.7504363195998679
 20
24.964961993574619
 30
0.0132477996623165
 70
    64
  0
VERTEX
  5
1516CD
  8
CROMAT
 10
0.7504363195998679
 20
24.975317332633949
 30
0.0211937307922111
 70
    64
  0
VERTEX
  5
1516CE
  8
CROMAT
 10
0.7504363195998679
 20
24.983263263763838
 30
0.0315490698515385
 70
    64
  0
VERTEX
  5
1516CF
  8
CROMAT
 10
0.7504363195998679
 20
24.988258284889071
 30
0.0436081175964125
 70
    64
  0
VERTEX
  5
1516D0
  8
CROMAT
 10
0.7504363195998679
 20
24.989961993574621
 30
0.0565490698515385
 70
    64
  0
SEQEND
  5
1516D1
  8
CROMAT
  0
POLYLINE
  5
1516D2
  8
CROMAT
 66
     1
 10
0.0
 20
0.0
 30
0.0
 70
    16
 71
     2
 72
     7
  0
VERTEX
  5
1516D3
  8
CROMAT
 10
0.7504363195998679
 20
24.989961993574621
 30
0.0565490698515385
 70
    64
  0
VERTEX
  5
1516D4
  8
CROMAT
 10
0.7504363195998679
 20
24.988258284889071
 30
0.0436081175964124
 70
    64
  0
VERTEX
  5
1516D5
  8
CROMAT
 10
0.7504363195998679
 20
24.983263263763838
 30
0.0315490698515385
 70
    64
  0
VERTEX
  5
1516D6
  8
CROMAT
 10
0.7504363195998679
 20
24.975317332633949
 30
0.0211937307922111
 70
    64
  0
VERTEX
  5
1516D7
  8
CROMAT
 10
0.7504363195998679
 20
24.964961993574619
 30
0.0132477996623166
 70
    64
  0
VERTEX
  5
1516D8
  8
CROMAT
 10
0.7504363195998679
 20
24.952902945829742
 30
0.0082527785370851
 70
    64
  0
VERTEX
  5
1516D9
  8
CROMAT
 10
0.7504363195998679
 20
24.93996199357462
 30
0.0065490698515385
 70
    64
  0
VERTEX
  5
1516DA
  8
CROMAT
 10
-0.0000000072615137
 20
24.996508777021891
 30
0.0499977087675542
 70
    64
  0
VERTEX
  5
1516DB
  8
CROMAT
 10
-0.0000000072615137
 20
24.994805238526329
 30
0.0370573055151775
 70
    64
  0
VERTEX
  5
1516DC
  8
CROMAT
 10
-0.0000000072615137
 20
24.989810488010139
 30
0.0249987588771728
 70
    64
  0
VERTEX
  5
1516DD
  8
CROMAT
 10
-0.0000000072615137
 20
24.9818649171586
 30
0.0146438574491952
 70
    64
  0
VERTEX
  5
1516DE
  8
CROMAT
 10
-0.0000000072615137
 20
24.971510015730619
 30
0.0066982865976572
 70
    64
  0
VERTEX
  5
1516DF
  8
CROMAT
 10
-0.0000000072615137
 20
24.95945146909262
 30
0.0017035360814641
 70
    64
  0
VERTEX
  5
1516E0
  8
CROMAT
 10
-0.0000000072615137
 20
24.946511065840252
 30
-0.0000000024140865
 70
    64
  0
SEQEND
  5
1516E1
  8
CROMAT
  0
POLYLINE
  5
1516E2
  8
CROMAT
 66
     1
 10
0.0
 20
0.0
 30
0.0
 70
    16
 71
     7
 72
     7
  0
VERTEX
  5
1516E3
  8
CROMAT
 10
0.7504363195998676
 20
24.93996199357462
 30
15.98995971438279
 70
    64
  0
VERTEX
  5
1516E4
  8
CROMAT
 10
0.7633772718549939
 20
24.93996199357462
 30
15.98825600569724
 70
    64
  0
VERTEX
  5
1516E5
  8
CROMAT
 10
0.775436319599868
 20
24.93996199357462
 30
15.983260984572009
 70
    64
  0
VERTEX
  5
1516E6
  8
CROMAT
 10
0.7857916586591954
 20
24.93996199357462
 30
15.97531505344212
 70
    64
  0
VERTEX
  5
1516E7
  8
CROMAT
 10
0.7937375897890899
 20
24.93996199357462
 30
15.96495971438279
 70
    64
  0
VERTEX
  5
1516E8
  8
CROMAT
 10
0.7987326109143214
 20
24.93996199357462
 30
15.952900666637911
 70
    64
  0
VERTEX
  5
1516E9
  8
CROMAT
 10
0.8004363195998676
 20
24.93996199357462
 30
15.93995971438278
 70
    64
  0
VERTEX
  5
1516EA
  8
CROMAT
 10
0.7504363195998676
 20
24.93996199357462
 30
15.98995971438279
 70
    64
  0
VERTEX
  5
1516EB
  8
CROMAT
 10
0.7629363195998679
 20
24.94331135848001
 30
15.98825600569724
 70
    64
  0
VERTEX
  5
1516EC
  8
CROMAT
 10
0.7745844652570946
 20
24.946432469702181
 30
15.983260984572009
 70
    64
  0
VERTEX
  5
1516ED
  8
CROMAT
 10
0.7845869546944789
 20
24.94911262866923
 30
15.97531505344212
 70
    64
  0
VERTEX
  5
1516EE
  8
CROMAT
 10
0.7922621347867583
 20
24.95116918697672
 30
15.96495971438279
 70
    64
  0
VERTEX
  5
1516EF
  8
CROMAT
 10
0.7970869546944788
 20
24.952461993574619
 30
15.952900666637911
 70
    64
  0
VERTEX
  5
1516F0
  8
CROMAT
 10
0.798732610914321
 20
24.952902945829742
 30
15.93995971438278
 70
    64
  0
VERTEX
  5
1516F1
  8
CROMAT
 10
0.7504363195998676
 20
24.93996199357462
 30
15.98995971438279
 70
    64
  0
VERTEX
  5
1516F2
  8
CROMAT
 10
0.7616435130019685
 20
24.946432469702181
 30
15.98825600569724
 70
    64
  0
VERTEX
  5
1516F3
  8
CROMAT
 10
0.7720869546944789
 20
24.952461993574619
 30
15.983260984572009
 70
    64
  0
VERTEX
  5
1516F4
  8
CROMAT
 10
0.7810549413846577
 20
24.957639663104281
 30
15.97531505344212
 70
    64
  0
VERTEX
  5
1516F5
  8
CROMAT
 10
0.7879363195998681
 20
24.961612628669229
 30
15.96495971438279
 70
    64
  0
VERTEX
  5
1516F6
  8
CROMAT
 10
0.7922621347867586
 20
24.964110139231838
 30
15.952900666637911
 70
    64
  0
VERTEX
  5
1516F7
  8
CROMAT
 10
0.7937375897890897
 20
24.964961993574619
 30
15.93995971438278
 70
    64
  0
VERTEX
  5
1516F8
  8
CROMAT
 10
0.7504363195998676
 20
24.93996199357462
 30
15.98995971438279
 70
    64
  0
VERTEX
  5
1516F9
  8
CROMAT
 10
0.7595869546944787
 20
24.94911262866923
 30
15.98825600569724
 70
    64
  0
VERTEX
  5
1516FA
  8
CROMAT
 10
0.7681139891295317
 20
24.957639663104281
 30
15.983260984572009
 70
    64
  0
VERTEX
  5
1516FB
  8
CROMAT
 10
0.775436319599868
 20
24.964961993574619
 30
15.97531505344212
 70
    64
  0
VERTEX
  5
1516FC
  8
CROMAT
 10
0.7810549413846577
 20
24.97058061535941
 30
15.96495971438279
 70
    64
  0
VERTEX
  5
1516FD
  8
CROMAT
 10
0.7845869546944789
 20
24.974112628669229
 30
15.952900666637911
 70
    64
  0
VERTEX
  5
1516FE
  8
CROMAT
 10
0.7857916586591952
 20
24.975317332633939
 30
15.93995971438278
 70
    64
  0
VERTEX
  5
1516FF
  8
CROMAT
 10
0.7504363195998676
 20
24.93996199357462
 30
15.98995971438279
 70
    64
  0
VERTEX
  5
151700
  8
CROMAT
 10
0.756906795727431
 20
24.95116918697672
 30
15.98825600569724
 70
    64
  0
VERTEX
  5
151701
  8
CROMAT
 10
0.7629363195998679
 20
24.961612628669229
 30
15.983260984572009
 70
    64
  0
VERTEX
  5
151702
  8
CROMAT
 10
0.7681139891295317
 20
24.97058061535941
 30
15.97531505344212
 70
    64
  0
VERTEX
  5
151703
  8
CROMAT
 10
0.7720869546944789
 20
24.977461993574622
 30
15.96495971438279
 70
    64
  0
VERTEX
  5
151704
  8
CROMAT
 10
0.7745844652570946
 20
24.98178780876151
 30
15.952900666637911
 70
    64
  0
VERTEX
  5
151705
  8
CROMAT
 10
0.7754363195998677
 20
24.983263263763838
 30
15.93995971438278
 70
    64
  0
VERTEX
  5
151706
  8
CROMAT
 10
0.7504363195998679
 20
24.93996199357462
 30
15.98995971438279
 70
    64
  0
VERTEX
  5
151707
  8
CROMAT
 10
0.7537856845052569
 20
24.952461993574619
 30
15.98825600569724
 70
    64
  0
VERTEX
  5
151708
  8
CROMAT
 10
0.756906795727431
 20
24.964110139231838
 30
15.983260984572009
 70
    64
  0
VERTEX
  5
151709
  8
CROMAT
 10
0.7595869546944787
 20
24.974112628669229
 30
15.97531505344212
 70
    64
  0
VERTEX
  5
15170A
  8
CROMAT
 10
0.7616435130019685
 20
24.98178780876151
 30
15.96495971438279
 70
    64
  0
VERTEX
  5
15170B
  8
CROMAT
 10
0.7629363195998679
 20
24.986612628669231
 30
15.952900666637911
 70
    64
  0
VERTEX
  5
15170C
  8
CROMAT
 10
0.7633772718549939
 20
24.988258284889071
 30
15.93995971438278
 70
    64
  0
VERTEX
  5
15170D
  8
CROMAT
 10
0.7504363195998679
 20
24.93996199357462
 30
15.98995971438279
 70
    64
  0
VERTEX
  5
15170E
  8
CROMAT
 10
0.7504363195998679
 20
24.952902945829742
 30
15.98825600569724
 70
    64
  0
VERTEX
  5
15170F
  8
CROMAT
 10
0.7504363195998679
 20
24.964961993574619
 30
15.983260984572009
 70
    64
  0
VERTEX
  5
151710
  8
CROMAT
 10
0.7504363195998679
 20
24.975317332633949
 30
15.97531505344212
 70
    64
  0
VERTEX
  5
151711
  8
CROMAT
 10
0.7504363195998679
 20
24.983263263763838
 30
15.96495971438279
 70
    64
  0
VERTEX
  5
151712
  8
CROMAT
 10
0.7504363195998679
 20
24.988258284889071
 30
15.952900666637911
 70
    64
  0
VERTEX
  5
151713
  8
CROMAT
 10
0.7504363195998679
 20
24.989961993574621
 30
15.93995971438278
 70
    64
  0
SEQEND
  5
151714
  8
CROMAT
  0
POLYLINE
  5
151715
  8
CROMAT
 66
     1
 10
0.0
 20
0.0
 30
0.0
 70
    16
 71
     2
 72
     7
  0
VERTEX
  5
151716
  8
CROMAT
 10
0.7504363195998679
 20
24.989961993574621
 30
15.93995971438278
 70
    64
  0
VERTEX
  5
151717
  8
CROMAT
 10
0.7504363195998679
 20
24.988258284889071
 30
15.952900666637911
 70
    64
  0
VERTEX
  5
151718
  8
CROMAT
 10
0.7504363195998679
 20
24.983263263763838
 30
15.96495971438279
 70
    64
  0
VERTEX
  5
151719
  8
CROMAT
 10
0.7504363195998679
 20
24.975317332633949
 30
15.97531505344212
 70
    64
  0
VERTEX
  5
15171A
  8
CROMAT
 10
0.7504363195998679
 20
24.964961993574619
 30
15.983260984572009
 70
    64
  0
VERTEX
  5
15171B
  8
CROMAT
 10
0.7504363195998679
 20
24.952902945829742
 30
15.98825600569724
 70
    64
  0
VERTEX
  5
15171C
  8
CROMAT
 10
0.7504363195998679
 20
24.93996199357462
 30
15.98995971438279
 70
    64
  0
VERTEX
  5
15171D
  8
CROMAT
 10
-0.0000000072615137
 20
24.996508777021891
 30
15.94651107546677
 70
    64
  0
VERTEX
  5
15171E
  8
CROMAT
 10
-0.0000000072615137
 20
24.994805238526329
 30
15.959451478719149
 70
    64
  0
VERTEX
  5
15171F
  8
CROMAT
 10
-0.0000000072615137
 20
24.989810488010139
 30
15.97151002535715
 70
    64
  0
VERTEX
  5
151720
  8
CROMAT
 10
-0.0000000072615137
 20
24.9818649171586
 30
15.98186492678513
 70
    64
  0
VERTEX
  5
151721
  8
CROMAT
 10
-0.0000000072615137
 20
24.971510015730619
 30
15.98981049763667
 70
    64
  0
VERTEX
  5
151722
  8
CROMAT
 10
-0.0000000072615137
 20
24.95945146909262
 30
15.99480524815286
 70
    64
  0
VERTEX
  5
151723
  8
CROMAT
 10
-0.0000000072615137
 20
24.946511065840252
 30
15.996508786648411
 70
    64
  0
SEQEND
  5
151724
  8
CROMAT
  0
3DFACE
  5
151725
  8
CROMAT
 10
0.7504363195998679
 20
24.989961993574621
 30
15.93995971438278
 11
-0.0000000072615137
 21
24.996508777021891
 31
15.94651107546677
 12
-0.0000000072615137
 22
24.996508777021891
 32
0.0499977087675542
 13
0.7504363195998679
 23
24.989959704756259
 33
0.0565467810331792
  0
POLYLINE
  5
151726
  8
CROMAT
 66
     1
 10
0.0
 20
0.0
 30
0.0
 70
    16
 71
     2
 72
    13
  0
VERTEX
  5
151727
  8
CROMAT
 10
0.7999999927313608
 20
23.69110145538097
 30
7.9982543921171629
 70
    64
  0
VERTEX
  5
151728
  8
CROMAT
 10
0.7999999927313608
 20
23.66806371334015
 30
7.6467685972402579
 70
    64
  0
VERTEX
  5
151729
  8
CROMAT
 10
0.7999999927313608
 20
23.599344674343229
 30
7.3012968976208414
 70
    64
  0
VERTEX
  5
15172A
  8
CROMAT
 10
0.7999999927313608
 20
23.486120155030751
 30
6.9677504843811731
 70
    64
  0
VERTEX
  5
15172B
  8
CROMAT
 10
0.7999999927313608
 20
23.33032748275577
 30
6.6518365011135581
 70
    64
  0
VERTEX
  5
15172C
  8
CROMAT
 10
0.7999999927313608
 20
23.134632346957641
 30
6.3589603918394477
 70
    64
  0
VERTEX
  5
15172D
  8
CROMAT
 10
0.7999999927313608
 20
22.902383187901279
 30
6.094133411196986
 70
    64
  0
VERTEX
  5
15172E
  8
CROMAT
 10
0.7999999927313608
 20
22.637553903213259
 30
5.8618868794032331
 70
    64
  0
VERTEX
  5
15172F
  8
CROMAT
 10
0.7999999927313608
 20
22.344675852534031
 30
5.6661946491310102
 70
    64
  0
VERTEX
  5
151730
  8
CROMAT
 10
0.7999999927313608
 20
22.028760323720078
 30
5.5104051109302654
 70
    64
  0
VERTEX
  5
151731
  8
CROMAT
 10
0.7999999927313608
 20
21.695212787237971
 30
5.3971839006147784
 70
    64
  0
VERTEX
  5
151732
  8
CROMAT
 10
0.7999999927313608
 20
21.349740405899219
 30
5.328468288919046
 70
    64
  0
VERTEX
  5
151733
  8
CROMAT
 10
0.7999999927313608
 20
20.998254382490639
 30
5.3054340338407968
 70
    64
  0
VERTEX
  5
151734
  8
CROMAT
 10
0.8004363195998678
 20
24.939959704756259
 30
7.9982543921171629
 70
    64
  0
VERTEX
  5
151735
  8
CROMAT
 10
0.8004363195998678
 20
24.939959895491121
 30
7.3364456152616953
 70
    64
  0
VERTEX
  5
151736
  8
CROMAT
 10
0.8004363195998678
 20
24.939960086225991
 30
6.6746368384062258
 70
    64
  0
VERTEX
  5
151737
  8
CROMAT
 10
0.8004363195998678
 20
24.93996027696085
 30
6.0128280615507572
 70
    64
  0
VERTEX
  5
151738
  8
CROMAT
 10
0.8004363195998678
 20
24.939960467695709
 30
5.3510192846952878
 70
    64
  0
VERTEX
  5
151739
  8
CROMAT
 10
0.8004363195998678
 20
24.939960658430579
 30
4.6892105078398201
 70
    64
  0
VERTEX
  5
15173A
  8
CROMAT
 10
0.8004363195998678
 20
24.939960849165441
 30
4.0274017309843506
 70
    64
  0
VERTEX
  5
15173B
  8
CROMAT
 10
0.8004363195998678
 20
24.9399610399003
 30
3.365592954128882
 70
    64
  0
VERTEX
  5
15173C
  8
CROMAT
 10
0.8004363195998678
 20
24.939961230635159
 30
2.703784177273413
 70
    64
  0
VERTEX
  5
15173D
  8
CROMAT
 10
0.8004363195998678
 20
24.939961421370029
 30
2.0419754004179449
 70
    64
  0
VERTEX
  5
15173E
  8
CROMAT
 10
0.8004363195998678
 20
24.939961612104891
 30
1.3801666235624761
 70
    64
  0
VERTEX
  5
15173F
  8
CROMAT
 10
0.8004363195998678
 20
24.939961802839751
 30
0.7183578467070088
 70
    64
  0
VERTEX
  5
151740
  8
CROMAT
 10
0.8004363195998678
 20
24.93996199357462
 30
0.0565490698515385
 70
    64
  0
SEQEND
  5
151741
  8
CROMAT
  0
POLYLINE
  5
151742
  8
CROMAT
 66
     1
 10
0.0
 20
0.0
 30
0.0
 70
    16
 71
     2
 72
     7
  0
VERTEX
  5
151743
  8
CROMAT
 10
0.8004363195998678
 20
24.939959704756259
 30
0.0565467810331792
 70
    64
  0
VERTEX
  5
151744
  8
CROMAT
 10
0.7987326109143212
 20
24.95290065701138
 30
0.0565467810331792
 70
    64
  0
VERTEX
  5
151745
  8
CROMAT
 10
0.7937375897890897
 20
24.964959704756261
 30
0.0565467810331792
 70
    64
  0
VERTEX
  5
151746
  8
CROMAT
 10
0.7857916586591952
 20
24.975315043815591
 30
0.0565467810331792
 70
    64
  0
VERTEX
  5
151747
  8
CROMAT
 10
0.775436319599868
 20
24.98326097494548
 30
0.0565467810331792
 70
    64
  0
VERTEX
  5
151748
  8
CROMAT
 10
0.7633772718549939
 20
24.98825599607072
 30
0.0565467810331792
 70
    64
  0
VERTEX
  5
151749
  8
CROMAT
 10
0.7504363195998679
 20
24.989959704756259
 30
0.0565467810331792
 70
    64
  0
VERTEX
  5
15174A
  8
CROMAT
 10
0.8004363195998676
 20
24.93996199357462
 30
15.93995971438278
 70
    64
  0
VERTEX
  5
15174B
  8
CROMAT
 10
0.798732610914321
 20
24.952902945829742
 30
15.93995971438278
 70
    64
  0
VERTEX
  5
15174C
  8
CROMAT
 10
0.7937375897890896
 20
24.964961993574619
 30
15.93995971438278
 70
    64
  0
VERTEX
  5
15174D
  8
CROMAT
 10
0.7857916586591949
 20
24.975317332633949
 30
15.93995971438278
 70
    64
  0
VERTEX
  5
15174E
  8
CROMAT
 10
0.7754363195998675
 20
24.983263263763838
 30
15.93995971438278
 70
    64
  0
VERTEX
  5
15174F
  8
CROMAT
 10
0.7633772718549937
 20
24.988258284889071
 30
15.93995971438278
 70
    64
  0
VERTEX
  5
151750
  8
CROMAT
 10
0.7504363195998676
 20
24.989961993574621
 30
15.93995971438278
 70
    64
  0
SEQEND
  5
151751
  8
CROMAT
  0
POLYLINE
  5
151752
  8
CROMAT
 66
     1
 10
0.0
 20
0.0
 30
0.0
 70
    16
 71
     2
 72
    13
  0
VERTEX
  5
151753
  8
CROMAT
 10
0.7999999927313608
 20
23.69110145538097
 30
7.9982543921171629
 70
    64
  0
VERTEX
  5
151754
  8
CROMAT
 10
0.7999999927313608
 20
23.66806371334015
 30
8.3497401869940724
 70
    64
  0
VERTEX
  5
151755
  8
CROMAT
 10
0.7999999927313608
 20
23.599344674343229
 30
8.6952118866134889
 70
    64
  0
VERTEX
  5
151756
  8
CROMAT
 10
0.7999999927313608
 20
23.486120155030751
 30
9.0287582998531555
 70
    64
  0
VERTEX
  5
151757
  8
CROMAT
 10
0.7999999927313608
 20
23.33032748275577
 30
9.3446722831207722
 70
    64
  0
VERTEX
  5
151758
  8
CROMAT
 10
0.7999999927313608
 20
23.134632346957641
 30
9.6375483923948781
 70
    64
  0
VERTEX
  5
151759
  8
CROMAT
 10
0.7999999927313608
 20
22.902383187901268
 30
9.9023753730373443
 70
    64
  0
VERTEX
  5
15175A
  8
CROMAT
 10
0.7999999927313608
 20
22.637553903213259
 30
10.134621904831089
 70
    64
  0
VERTEX
  5
15175B
  8
CROMAT
 10
0.7999999927313608
 20
22.344675852534031
 30
10.33031413510332
 70
    64
  0
VERTEX
  5
15175C
  8
CROMAT
 10
0.7999999927313608
 20
22.028760323720078
 30
10.48610367330406
 70
    64
  0
VERTEX
  5
15175D
  8
CROMAT
 10
0.7999999927313608
 20
21.695212787237981
 30
10.59932488361955
 70
    64
  0
VERTEX
  5
15175E
  8
CROMAT
 10
0.7999999927313608
 20
21.349740405899219
 30
10.66804049531528
 70
    64
  0
VERTEX
  5
15175F
  8
CROMAT
 10
0.7999999927313608
 20
20.998254382490639
 30
10.691074750393531
 70
    64
  0
VERTEX
  5
151760
  8
CROMAT
 10
0.8004363195998678
 20
24.939959704756259
 30
7.9982543921171629
 70
    64
  0
VERTEX
  5
151761
  8
CROMAT
 10
0.8004363195998678
 20
24.939959895491121
 30
8.6600631689726342
 70
    64
  0
VERTEX
  5
151762
  8
CROMAT
 10
0.8004363195998678
 20
24.939960086225991
 30
9.3218719458281001
 70
    64
  0
VERTEX
  5
151763
  8
CROMAT
 10
0.8004363195998678
 20
24.93996027696085
 30
9.9836807226835695
 70
    64
  0
VERTEX
  5
151764
  8
CROMAT
 10
0.8004363195998678
 20
24.939960467695709
 30
10.645489499539041
 70
    64
  0
VERTEX
  5
151765
  8
CROMAT
 10
0.8004363195998678
 20
24.939960658430579
 30
11.30729827639451
 70
    64
  0
VERTEX
  5
151766
  8
CROMAT
 10
0.8004363195998678
 20
24.939960849165441
 30
11.969107053249971
 70
    64
  0
VERTEX
  5
151767
  8
CROMAT
 10
0.8004363195998678
 20
24.9399610399003
 30
12.63091583010544
 70
    64
  0
VERTEX
  5
151768
  8
CROMAT
 10
0.8004363195998678
 20
24.939961230635159
 30
13.29272460696091
 70
    64
  0
VERTEX
  5
151769
  8
CROMAT
 10
0.8004363195998678
 20
24.939961421370029
 30
13.954533383816379
 70
    64
  0
VERTEX
  5
15176A
  8
CROMAT
 10
0.8004363195998678
 20
24.939961612104891
 30
14.61634216067185
 70
    64
  0
VERTEX
  5
15176B
  8
CROMAT
 10
0.8004363195998678
 20
24.939961802839751
 30
15.27815093752732
 70
    64
  0
VERTEX
  5
15176C
  8
CROMAT
 10
0.8004363195998678
 20
24.93996199357462
 30
15.93995971438278
 70
    64
  0
SEQEND
  5
15176D
  8
CROMAT
  0
POLYLINE
  5
15176E
  8
PULSADOR
 66
     1
 10
0.0
 20
0.0
 30
0.0
 70
    16
 71
     7
 72
     7
  0
VERTEX
  5
15176F
  8
PULSADOR
 10
1.149999992738485
 20
15.501707255720611
 30
9.6117073034941178
 70
    64
  0
VERTEX
  5
151770
  8
PULSADOR
 10
1.1629409449936119
 20
15.501707255720611
 30
9.6100035948085711
 70
    64
  0
VERTEX
  5
151771
  8
PULSADOR
 10
1.174999992738486
 20
15.501707255720611
 30
9.6050085736833388
 70
    64
  0
VERTEX
  5
151772
  8
PULSADOR
 10
1.185355331797814
 20
15.501707255720611
 30
9.5970626425534427
 70
    64
  0
VERTEX
  5
151773
  8
PULSADOR
 10
1.193301262927708
 20
15.501707255720611
 30
9.5867073034941157
 70
    64
  0
VERTEX
  5
151774
  8
PULSADOR
 10
1.198296284052939
 20
15.501707255720611
 30
9.5746482557492421
 70
    64
  0
VERTEX
  5
151775
  8
PULSADOR
 10
1.1999999927384859
 20
15.501707255720611
 30
9.5617073034941171
 70
    64
  0
VERTEX
  5
151776
  8
PULSADOR
 10
1.149999992738485
 20
15.501707255720611
 30
9.6117073034941178
 70
    64
  0
VERTEX
  5
151777
  8
PULSADOR
 10
1.162499992738486
 20
15.505056620626
 30
9.6100035948085711
 70
    64
  0
VERTEX
  5
151778
  8
PULSADOR
 10
1.174148138395712
 20
15.50817773184818
 30
9.6050085736833388
 70
    64
  0
VERTEX
  5
151779
  8
PULSADOR
 10
1.1841506278330971
 20
15.51085789081522
 30
9.5970626425534427
 70
    64
  0
VERTEX
  5
15177A
  8
PULSADOR
 10
1.1918258079253761
 20
15.512914449122709
 30
9.5867073034941157
 70
    64
  0
VERTEX
  5
15177B
  8
PULSADOR
 10
1.1966506278330971
 20
15.51420725572061
 30
9.5746482557492421
 70
    64
  0
VERTEX
  5
15177C
  8
PULSADOR
 10
1.198296284052939
 20
15.514648207975741
 30
9.5617073034941171
 70
    64
  0
VERTEX
  5
15177D
  8
PULSADOR
 10
1.149999992738485
 20
15.501707255720611
 30
9.6117073034941178
 70
    64
  0
VERTEX
  5
15177E
  8
PULSADOR
 10
1.161207186140587
 20
15.50817773184818
 30
9.6100035948085711
 70
    64
  0
VERTEX
  5
15177F
  8
PULSADOR
 10
1.1716506278330969
 20
15.51420725572061
 30
9.6050085736833388
 70
    64
  0
VERTEX
  5
151780
  8
PULSADOR
 10
1.180618614523276
 20
15.51938492525028
 30
9.5970626425534427
 70
    64
  0
VERTEX
  5
151781
  8
PULSADOR
 10
1.1874999927384859
 20
15.52335789081523
 30
9.5867073034941157
 70
    64
  0
VERTEX
  5
151782
  8
PULSADOR
 10
1.1918258079253761
 20
15.525855401377839
 30
9.5746482557492421
 70
    64
  0
VERTEX
  5
151783
  8
PULSADOR
 10
1.193301262927708
 20
15.526707255720609
 30
9.5617073034941171
 70
    64
  0
VERTEX
  5
151784
  8
PULSADOR
 10
1.149999992738485
 20
15.501707255720611
 30
9.6117073034941178
 70
    64
  0
VERTEX
  5
151785
  8
PULSADOR
 10
1.159150627833097
 20
15.51085789081522
 30
9.6100035948085711
 70
    64
  0
VERTEX
  5
151786
  8
PULSADOR
 10
1.16767766226815
 20
15.51938492525028
 30
9.6050085736833388
 70
    64
  0
VERTEX
  5
151787
  8
PULSADOR
 10
1.174999992738486
 20
15.526707255720609
 30
9.5970626425534427
 70
    64
  0
VERTEX
  5
151788
  8
PULSADOR
 10
1.180618614523276
 20
15.5323258775054
 30
9.5867073034941157
 70
    64
  0
VERTEX
  5
151789
  8
PULSADOR
 10
1.1841506278330971
 20
15.535857890815221
 30
9.5746482557492421
 70
    64
  0
VERTEX
  5
15178A
  8
PULSADOR
 10
1.1853553317978129
 20
15.53706259477994
 30
9.5617073034941171
 70
    64
  0
VERTEX
  5
15178B
  8
PULSADOR
 10
1.149999992738485
 20
15.501707255720611
 30
9.6117073034941178
 70
    64
  0
VERTEX
  5
15178C
  8
PULSADOR
 10
1.156470468866049
 20
15.512914449122709
 30
9.6100035948085711
 70
    64
  0
VERTEX
  5
15178D
  8
PULSADOR
 10
1.162499992738486
 20
15.52335789081523
 30
9.6050085736833388
 70
    64
  0
VERTEX
  5
15178E
  8
PULSADOR
 10
1.16767766226815
 20
15.5323258775054
 30
9.5970626425534427
 70
    64
  0
VERTEX
  5
15178F
  8
PULSADOR
 10
1.1716506278330969
 20
15.53920725572061
 30
9.5867073034941157
 70
    64
  0
VERTEX
  5
151790
  8
PULSADOR
 10
1.174148138395712
 20
15.5435330709075
 30
9.5746482557492421
 70
    64
  0
VERTEX
  5
151791
  8
PULSADOR
 10
1.174999992738486
 20
15.545008525909839
 30
9.5617073034941171
 70
    64
  0
VERTEX
  5
151792
  8
PULSADOR
 10
1.1499999927384861
 20
15.501707255720611
 30
9.6117073034941178
 70
    64
  0
VERTEX
  5
151793
  8
PULSADOR
 10
1.1533493576438749
 20
15.51420725572061
 30
9.6100035948085711
 70
    64
  0
VERTEX
  5
151794
  8
PULSADOR
 10
1.156470468866049
 20
15.525855401377839
 30
9.6050085736833388
 70
    64
  0
VERTEX
  5
151795
  8
PULSADOR
 10
1.159150627833097
 20
15.535857890815221
 30
9.5970626425534427
 70
    64
  0
VERTEX
  5
151796
  8
PULSADOR
 10
1.161207186140587
 20
15.5435330709075
 30
9.5867073034941157
 70
    64
  0
VERTEX
  5
151797
  8
PULSADOR
 10
1.162499992738486
 20
15.54835789081522
 30
9.5746482557492421
 70
    64
  0
VERTEX
  5
151798
  8
PULSADOR
 10
1.1629409449936119
 20
15.55000354703507
 30
9.5617073034941171
 70
    64
  0
VERTEX
  5
151799
  8
PULSADOR
 10
1.1499999927384861
 20
15.501707255720611
 30
9.6117073034941178
 70
    64
  0
VERTEX
  5
15179A
  8
PULSADOR
 10
1.1499999927384861
 20
15.514648207975741
 30
9.6100035948085711
 70
    64
  0
VERTEX
  5
15179B
  8
PULSADOR
 10
1.1499999927384861
 20
15.526707255720609
 30
9.6050085736833388
 70
    64
  0
VERTEX
  5
15179C
  8
PULSADOR
 10
1.1499999927384861
 20
15.53706259477994
 30
9.5970626425534427
 70
    64
  0
VERTEX
  5
15179D
  8
PULSADOR
 10
1.1499999927384861
 20
15.545008525909839
 30
9.5867073034941157
 70
    64
  0
VERTEX
  5
15179E
  8
PULSADOR
 10
1.1499999927384861
 20
15.55000354703507
 30
9.5746482557492421
 70
    64
  0
VERTEX
  5
15179F
  8
PULSADOR
 10
1.1499999927384861
 20
15.55170725572061
 30
9.5617073034941171
 70
    64
  0
SEQEND
  5
1517A0
  8
PULSADOR
  0
POLYLINE
  5
1517A1
  8
PULSADOR
 66
     1
 10
0.0
 20
0.0
 30
0.0
 70
    16
 71
     7
 72
     7
  0
VERTEX
  5
1517A2
  8
PULSADOR
 10
1.149999992738485
 20
15.501707255720611
 30
6.3848014807402071
 70
    64
  0
VERTEX
  5
1517A3
  8
PULSADOR
 10
1.1629409449936119
 20
15.501707255720611
 30
6.386505189425753
 70
    64
  0
VERTEX
  5
1517A4
  8
PULSADOR
 10
1.174999992738486
 20
15.501707255720611
 30
6.3915002105509844
 70
    64
  0
VERTEX
  5
1517A5
  8
PULSADOR
 10
1.185355331797814
 20
15.501707255720611
 30
6.3994461416808797
 70
    64
  0
VERTEX
  5
1517A6
  8
PULSADOR
 10
1.193301262927708
 20
15.501707255720611
 30
6.4098014807402066
 70
    64
  0
VERTEX
  5
1517A7
  8
PULSADOR
 10
1.198296284052939
 20
15.501707255720611
 30
6.4218605284850812
 70
    64
  0
VERTEX
  5
1517A8
  8
PULSADOR
 10
1.1999999927384859
 20
15.501707255720611
 30
6.434801480740207
 70
    64
  0
VERTEX
  5
1517A9
  8
PULSADOR
 10
1.149999992738485
 20
15.501707255720611
 30
6.3848014807402071
 70
    64
  0
VERTEX
  5
1517AA
  8
PULSADOR
 10
1.162499992738486
 20
15.505056620626
 30
6.386505189425753
 70
    64
  0
VERTEX
  5
1517AB
  8
PULSADOR
 10
1.174148138395712
 20
15.50817773184818
 30
6.3915002105509844
 70
    64
  0
VERTEX
  5
1517AC
  8
PULSADOR
 10
1.1841506278330971
 20
15.51085789081522
 30
6.3994461416808797
 70
    64
  0
VERTEX
  5
1517AD
  8
PULSADOR
 10
1.1918258079253761
 20
15.512914449122709
 30
6.4098014807402066
 70
    64
  0
VERTEX
  5
1517AE
  8
PULSADOR
 10
1.1966506278330971
 20
15.51420725572061
 30
6.4218605284850812
 70
    64
  0
VERTEX
  5
1517AF
  8
PULSADOR
 10
1.198296284052939
 20
15.514648207975741
 30
6.434801480740207
 70
    64
  0
VERTEX
  5
1517B0
  8
PULSADOR
 10
1.149999992738485
 20
15.501707255720611
 30
6.3848014807402071
 70
    64
  0
VERTEX
  5
1517B1
  8
PULSADOR
 10
1.161207186140587
 20
15.50817773184818
 30
6.386505189425753
 70
    64
  0
VERTEX
  5
1517B2
  8
PULSADOR
 10
1.1716506278330969
 20
15.51420725572061
 30
6.3915002105509844
 70
    64
  0
VERTEX
  5
1517B3
  8
PULSADOR
 10
1.180618614523276
 20
15.51938492525028
 30
6.3994461416808797
 70
    64
  0
VERTEX
  5
1517B4
  8
PULSADOR
 10
1.1874999927384859
 20
15.52335789081523
 30
6.4098014807402066
 70
    64
  0
VERTEX
  5
1517B5
  8
PULSADOR
 10
1.1918258079253761
 20
15.525855401377839
 30
6.4218605284850812
 70
    64
  0
VERTEX
  5
1517B6
  8
PULSADOR
 10
1.193301262927708
 20
15.526707255720609
 30
6.434801480740207
 70
    64
  0
VERTEX
  5
1517B7
  8
PULSADOR
 10
1.149999992738485
 20
15.501707255720611
 30
6.3848014807402071
 70
    64
  0
VERTEX
  5
1517B8
  8
PULSADOR
 10
1.159150627833097
 20
15.51085789081522
 30
6.386505189425753
 70
    64
  0
VERTEX
  5
1517B9
  8
PULSADOR
 10
1.16767766226815
 20
15.51938492525028
 30
6.3915002105509844
 70
    64
  0
VERTEX
  5
1517BA
  8
PULSADOR
 10
1.174999992738486
 20
15.526707255720609
 30
6.3994461416808797
 70
    64
  0
VERTEX
  5
1517BB
  8
PULSADOR
 10
1.180618614523276
 20
15.5323258775054
 30
6.4098014807402066
 70
    64
  0
VERTEX
  5
1517BC
  8
PULSADOR
 10
1.1841506278330971
 20
15.535857890815221
 30
6.4218605284850812
 70
    64
  0
VERTEX
  5
1517BD
  8
PULSADOR
 10
1.1853553317978129
 20
15.53706259477994
 30
6.434801480740207
 70
    64
  0
VERTEX
  5
1517BE
  8
PULSADOR
 10
1.149999992738485
 20
15.501707255720611
 30
6.3848014807402071
 70
    64
  0
VERTEX
  5
1517BF
  8
PULSADOR
 10
1.156470468866049
 20
15.512914449122709
 30
6.386505189425753
 70
    64
  0
VERTEX
  5
1517C0
  8
PULSADOR
 10
1.162499992738486
 20
15.52335789081523
 30
6.3915002105509844
 70
    64
  0
VERTEX
  5
1517C1
  8
PULSADOR
 10
1.16767766226815
 20
15.5323258775054
 30
6.3994461416808797
 70
    64
  0
VERTEX
  5
1517C2
  8
PULSADOR
 10
1.1716506278330969
 20
15.53920725572061
 30
6.4098014807402066
 70
    64
  0
VERTEX
  5
1517C3
  8
PULSADOR
 10
1.174148138395712
 20
15.5435330709075
 30
6.4218605284850812
 70
    64
  0
VERTEX
  5
1517C4
  8
PULSADOR
 10
1.174999992738486
 20
15.545008525909839
 30
6.434801480740207
 70
    64
  0
VERTEX
  5
1517C5
  8
PULSADOR
 10
1.1499999927384861
 20
15.501707255720611
 30
6.3848014807402071
 70
    64
  0
VERTEX
  5
1517C6
  8
PULSADOR
 10
1.1533493576438749
 20
15.51420725572061
 30
6.386505189425753
 70
    64
  0
VERTEX
  5
1517C7
  8
PULSADOR
 10
1.156470468866049
 20
15.525855401377839
 30
6.3915002105509844
 70
    64
  0
VERTEX
  5
1517C8
  8
PULSADOR
 10
1.159150627833097
 20
15.535857890815221
 30
6.3994461416808797
 70
    64
  0
VERTEX
  5
1517C9
  8
PULSADOR
 10
1.161207186140587
 20
15.5435330709075
 30
6.4098014807402066
 70
    64
  0
VERTEX
  5
1517CA
  8
PULSADOR
 10
1.162499992738486
 20
15.54835789081522
 30
6.4218605284850812
 70
    64
  0
VERTEX
  5
1517CB
  8
PULSADOR
 10
1.1629409449936119
 20
15.55000354703507
 30
6.434801480740207
 70
    64
  0
VERTEX
  5
1517CC
  8
PULSADOR
 10
1.1499999927384861
 20
15.501707255720611
 30
6.3848014807402071
 70
    64
  0
VERTEX
  5
1517CD
  8
PULSADOR
 10
1.1499999927384861
 20
15.514648207975741
 30
6.386505189425753
 70
    64
  0
VERTEX
  5
1517CE
  8
PULSADOR
 10
1.1499999927384861
 20
15.526707255720609
 30
6.3915002105509844
 70
    64
  0
VERTEX
  5
1517CF
  8
PULSADOR
 10
1.1499999927384861
 20
15.53706259477994
 30
6.3994461416808797
 70
    64
  0
VERTEX
  5
1517D0
  8
PULSADOR
 10
1.1499999927384861
 20
15.545008525909839
 30
6.4098014807402066
 70
    64
  0
VERTEX
  5
1517D1
  8
PULSADOR
 10
1.1499999927384861
 20
15.55000354703507
 30
6.4218605284850812
 70
    64
  0
VERTEX
  5
1517D2
  8
PULSADOR
 10
1.1499999927384861
 20
15.55170725572061
 30
6.434801480740207
 70
    64
  0
SEQEND
  5
1517D3
  8
PULSADOR
  0
POLYLINE
  5
1517D4
  8
PULSADOR
 66
     1
 10
0.0
 20
0.0
 30
0.0
 70
    16
 71
     2
 72
     7
  0
VERTEX
  5
1517D5
  8
PULSADOR
 10
1.1999999927384859
 20
15.501707255720611
 30
9.5617073034941171
 70
    64
  0
VERTEX
  5
1517D6
  8
PULSADOR
 10
1.198296284052939
 20
15.514648207975741
 30
9.5617073034941171
 70
    64
  0
VERTEX
  5
1517D7
  8
PULSADOR
 10
1.1933012629277071
 20
15.526707255720609
 30
9.5617073034941171
 70
    64
  0
VERTEX
  5
1517D8
  8
PULSADOR
 10
1.1853553317978129
 20
15.53706259477994
 30
9.5617073034941171
 70
    64
  0
VERTEX
  5
1517D9
  8
PULSADOR
 10
1.1749999927384851
 20
15.545008525909839
 30
9.5617073034941171
 70
    64
  0
VERTEX
  5
1517DA
  8
PULSADOR
 10
1.1629409449936119
 20
15.55000354703507
 30
9.5617073034941171
 70
    64
  0
VERTEX
  5
1517DB
  8
PULSADOR
 10
1.149999992738485
 20
15.55170725572061
 30
9.5617073034941171
 70
    64
  0
VERTEX
  5
1517DC
  8
PULSADOR
 10
1.1999999927384859
 20
15.501707255720611
 30
6.434801480740207
 70
    64
  0
VERTEX
  5
1517DD
  8
PULSADOR
 10
1.198296284052939
 20
15.514648207975741
 30
6.434801480740207
 70
    64
  0
VERTEX
  5
1517DE
  8
PULSADOR
 10
1.1933012629277071
 20
15.526707255720609
 30
6.434801480740207
 70
    64
  0
VERTEX
  5
1517DF
  8
PULSADOR
 10
1.1853553317978129
 20
15.53706259477994
 30
6.434801480740207
 70
    64
  0
VERTEX
  5
1517E0
  8
PULSADOR
 10
1.1749999927384851
 20
15.545008525909839
 30
6.434801480740207
 70
    64
  0
VERTEX
  5
1517E1
  8
PULSADOR
 10
1.1629409449936119
 20
15.55000354703507
 30
6.434801480740207
 70
    64
  0
VERTEX
  5
1517E2
  8
PULSADOR
 10
1.149999992738485
 20
15.55170725572061
 30
6.434801480740207
 70
    64
  0
SEQEND
  5
1517E3
  8
PULSADOR
  0
POLYLINE
  5
1517E4
  8
PULSADOR
 66
     1
 10
0.0
 20
0.0
 30
0.0
 70
    16
 71
     2
 72
     7
  0
VERTEX
  5
1517E5
  8
PULSADOR
 10
0.2499999927384862
 20
15.509565341352941
 30
6.3769453024565159
 70
    64
  0
VERTEX
  5
1517E6
  8
PULSADOR
 10
0.2499999927384862
 20
15.52250589578003
 30
6.378648779244676
 70
    64
  0
VERTEX
  5
1517E7
  8
PULSADOR
 10
0.2499999927384862
 20
15.53456459012229
 30
6.383643543784487
 70
    64
  0
VERTEX
  5
1517E8
  8
PULSADOR
 10
0.2499999927384862
 20
15.544919607858731
 30
6.3915891960375371
 70
    64
  0
VERTEX
  5
1517E9
  8
PULSADOR
 10
0.2499999927384862
 20
15.552865240360401
 30
6.401944228929648
 70
    64
  0
VERTEX
  5
1517EA
  8
PULSADOR
 10
0.2499999927384862
 20
15.55785998189922
 30
6.4140029327990034
 70
    64
  0
VERTEX
  5
1517EB
  8
PULSADOR
 10
0.2499999927384862
 20
15.559563434004311
 30
6.4269434904753151
 70
    64
  0
VERTEX
  5
1517EC
  8
PULSADOR
 10
1.1499999927384861
 20
15.501707255720611
 30
6.384801480740208
 70
    64
  0
VERTEX
  5
1517ED
  8
PULSADOR
 10
1.1499999927384861
 20
15.514648207975741
 30
6.3865051894257538
 70
    64
  0
VERTEX
  5
1517EE
  8
PULSADOR
 10
1.1499999927384861
 20
15.526707255720609
 30
6.3915002105509862
 70
    64
  0
VERTEX
  5
1517EF
  8
PULSADOR
 10
1.1499999927384861
 20
15.53706259477994
 30
6.3994461416808797
 70
    64
  0
VERTEX
  5
1517F0
  8
PULSADOR
 10
1.1499999927384861
 20
15.545008525909839
 30
6.4098014807402066
 70
    64
  0
VERTEX
  5
1517F1
  8
PULSADOR
 10
1.1499999927384861
 20
15.55000354703507
 30
6.421860528485082
 70
    64
  0
VERTEX
  5
1517F2
  8
PULSADOR
 10
1.1499999927384861
 20
15.55170725572061
 30
6.434801480740207
 70
    64
  0
SEQEND
  5
1517F3
  8
PULSADOR
  0
POLYLINE
  5
1517F4
  8
PULSADOR
 66
     1
 10
0.0
 20
0.0
 30
0.0
 70
    16
 71
     2
 72
     7
  0
VERTEX
  5
1517F5
  8
PULSADOR
 10
1.1499999927384861
 20
15.501707255720611
 30
9.6117073034941178
 70
    64
  0
VERTEX
  5
1517F6
  8
PULSADOR
 10
1.1499999927384861
 20
15.514648207975741
 30
9.6100035948085711
 70
    64
  0
VERTEX
  5
1517F7
  8
PULSADOR
 10
1.1499999927384861
 20
15.526707255720609
 30
9.6050085736833388
 70
    64
  0
VERTEX
  5
1517F8
  8
PULSADOR
 10
1.1499999927384861
 20
15.53706259477994
 30
9.5970626425534427
 70
    64
  0
VERTEX
  5
1517F9
  8
PULSADOR
 10
1.1499999927384861
 20
15.545008525909839
 30
9.5867073034941157
 70
    64
  0
VERTEX
  5
1517FA
  8
PULSADOR
 10
1.1499999927384861
 20
15.55000354703507
 30
9.5746482557492421
 70
    64
  0
VERTEX
  5
1517FB
  8
PULSADOR
 10
1.1499999927384861
 20
15.55170725572061
 30
9.5617073034941171
 70
    64
  0
VERTEX
  5
1517FC
  8
PULSADOR
 10
0.2499999927384862
 20
15.509565341352941
 30
9.6195634817778064
 70
    64
  0
VERTEX
  5
1517FD
  8
PULSADOR
 10
0.2499999927384862
 20
15.52250589578003
 30
9.6178600049896481
 70
    64
  0
VERTEX
  5
1517FE
  8
PULSADOR
 10
0.2499999927384862
 20
15.53456459012229
 30
9.6128652404498354
 70
    64
  0
VERTEX
  5
1517FF
  8
PULSADOR
 10
0.2499999927384862
 20
15.544919607858731
 30
9.6049195881967862
 70
    64
  0
VERTEX
  5
151800
  8
PULSADOR
 10
0.2499999927384862
 20
15.552865240360401
 30
9.5945645553046752
 70
    64
  0
VERTEX
  5
151801
  8
PULSADOR
 10
0.2499999927384862
 20
15.55785998189922
 30
9.5825058514353216
 70
    64
  0
VERTEX
  5
151802
  8
PULSADOR
 10
0.2499999927384862
 20
15.559563434004311
 30
9.5695652937590072
 70
    64
  0
SEQEND
  5
151803
  8
PULSADOR
  0
3DFACE
  5
151804
  8
PULSADOR
 10
0.2499999927384862
 20
15.559563434004311
 30
6.4269434904753151
 11
1.1499999927384861
 21
15.55170725572061
 31
6.434801480740207
 12
1.1499999927384861
 22
15.55170725572061
 32
9.5617073034941171
 13
0.2499999927384862
 23
15.559563434004311
 33
9.5695652937590072
  0
POLYLINE
  5
151805
  8
PULSADOR
 66
     1
 10
0.0
 20
0.0
 30
0.0
 70
    16
 71
     7
 72
     7
  0
VERTEX
  5
151806
  8
PULSADOR
 10
1.149999992738485
 20
15.69480150926065
 30
9.6117073034941178
 70
    64
  0
VERTEX
  5
151807
  8
PULSADOR
 10
1.1629409449936119
 20
15.69480150926065
 30
9.6100035948085711
 70
    64
  0
VERTEX
  5
151808
  8
PULSADOR
 10
1.174999992738486
 20
15.69480150926065
 30
9.6050085736833388
 70
    64
  0
VERTEX
  5
151809
  8
PULSADOR
 10
1.185355331797814
 20
15.69480150926065
 30
9.5970626425534427
 70
    64
  0
VERTEX
  5
15180A
  8
PULSADOR
 10
1.193301262927708
 20
15.69480150926065
 30
9.5867073034941157
 70
    64
  0
VERTEX
  5
15180B
  8
PULSADOR
 10
1.198296284052939
 20
15.69480150926065
 30
9.5746482557492421
 70
    64
  0
VERTEX
  5
15180C
  8
PULSADOR
 10
1.1999999927384859
 20
15.69480150926065
 30
9.5617073034941171
 70
    64
  0
VERTEX
  5
15180D
  8
PULSADOR
 10
1.149999992738485
 20
15.69480150926065
 30
9.6117073034941178
 70
    64
  0
VERTEX
  5
15180E
  8
PULSADOR
 10
1.162499992738486
 20
15.69145214435526
 30
9.6100035948085711
 70
    64
  0
VERTEX
  5
15180F
  8
PULSADOR
 10
1.174148138395712
 20
15.688331033133091
 30
9.6050085736833388
 70
    64
  0
VERTEX
  5
151810
  8
PULSADOR
 10
1.1841506278330971
 20
15.68565087416604
 30
9.5970626425534427
 70
    64
  0
VERTEX
  5
151811
  8
PULSADOR
 10
1.1918258079253761
 20
15.683594315858549
 30
9.5867073034941157
 70
    64
  0
VERTEX
  5
151812
  8
PULSADOR
 10
1.1966506278330971
 20
15.68230150926065
 30
9.5746482557492421
 70
    64
  0
VERTEX
  5
151813
  8
PULSADOR
 10
1.198296284052939
 20
15.68186055700553
 30
9.5617073034941171
 70
    64
  0
VERTEX
  5
151814
  8
PULSADOR
 10
1.149999992738485
 20
15.69480150926065
 30
9.6117073034941178
 70
    64
  0
VERTEX
  5
151815
  8
PULSADOR
 10
1.161207186140587
 20
15.688331033133091
 30
9.6100035948085711
 70
    64
  0
VERTEX
  5
151816
  8
PULSADOR
 10
1.1716506278330969
 20
15.68230150926065
 30
9.6050085736833388
 70
    64
  0
VERTEX
  5
151817
  8
PULSADOR
 10
1.180618614523276
 20
15.67712383973099
 30
9.5970626425534427
 70
    64
  0
VERTEX
  5
151818
  8
PULSADOR
 10
1.1874999927384859
 20
15.673150874166041
 30
9.5867073034941157
 70
    64
  0
VERTEX
  5
151819
  8
PULSADOR
 10
1.1918258079253761
 20
15.67065336360343
 30
9.5746482557492421
 70
    64
  0
VERTEX
  5
15181A
  8
PULSADOR
 10
1.193301262927708
 20
15.669801509260649
 30
9.5617073034941171
 70
    64
  0
VERTEX
  5
15181B
  8
PULSADOR
 10
1.149999992738485
 20
15.69480150926065
 30
9.6117073034941178
 70
    64
  0
VERTEX
  5
15181C
  8
PULSADOR
 10
1.159150627833097
 20
15.68565087416604
 30
9.6100035948085711
 70
    64
  0
VERTEX
  5
15181D
  8
PULSADOR
 10
1.16767766226815
 20
15.67712383973099
 30
9.6050085736833388
 70
    64
  0
VERTEX
  5
15181E
  8
PULSADOR
 10
1.174999992738486
 20
15.669801509260649
 30
9.5970626425534427
 70
    64
  0
VERTEX
  5
15181F
  8
PULSADOR
 10
1.180618614523276
 20
15.66418288747586
 30
9.5867073034941157
 70
    64
  0
VERTEX
  5
151820
  8
PULSADOR
 10
1.1841506278330971
 20
15.66065087416604
 30
9.5746482557492421
 70
    64
  0
VERTEX
  5
151821
  8
PULSADOR
 10
1.1853553317978129
 20
15.659446170201329
 30
9.5617073034941171
 70
    64
  0
VERTEX
  5
151822
  8
PULSADOR
 10
1.149999992738485
 20
15.69480150926065
 30
9.6117073034941178
 70
    64
  0
VERTEX
  5
151823
  8
PULSADOR
 10
1.156470468866049
 20
15.683594315858549
 30
9.6100035948085711
 70
    64
  0
VERTEX
  5
151824
  8
PULSADOR
 10
1.162499992738486
 20
15.673150874166041
 30
9.6050085736833388
 70
    64
  0
VERTEX
  5
151825
  8
PULSADOR
 10
1.16767766226815
 20
15.66418288747586
 30
9.5970626425534427
 70
    64
  0
VERTEX
  5
151826
  8
PULSADOR
 10
1.1716506278330969
 20
15.65730150926065
 30
9.5867073034941157
 70
    64
  0
VERTEX
  5
151827
  8
PULSADOR
 10
1.174148138395712
 20
15.65297569407376
 30
9.5746482557492421
 70
    64
  0
VERTEX
  5
151828
  8
PULSADOR
 10
1.174999992738486
 20
15.65150023907143
 30
9.5617073034941171
 70
    64
  0
VERTEX
  5
151829
  8
PULSADOR
 10
1.1499999927384861
 20
15.69480150926065
 30
9.6117073034941178
 70
    64
  0
VERTEX
  5
15182A
  8
PULSADOR
 10
1.1533493576438749
 20
15.68230150926065
 30
9.6100035948085711
 70
    64
  0
VERTEX
  5
15182B
  8
PULSADOR
 10
1.156470468866049
 20
15.67065336360343
 30
9.6050085736833388
 70
    64
  0
VERTEX
  5
15182C
  8
PULSADOR
 10
1.159150627833097
 20
15.66065087416604
 30
9.5970626425534427
 70
    64
  0
VERTEX
  5
15182D
  8
PULSADOR
 10
1.161207186140587
 20
15.65297569407376
 30
9.5867073034941157
 70
    64
  0
VERTEX
  5
15182E
  8
PULSADOR
 10
1.162499992738486
 20
15.64815087416604
 30
9.5746482557492421
 70
    64
  0
VERTEX
  5
15182F
  8
PULSADOR
 10
1.1629409449936119
 20
15.646505217946199
 30
9.5617073034941171
 70
    64
  0
VERTEX
  5
151830
  8
PULSADOR
 10
1.1499999927384861
 20
15.69480150926065
 30
9.6117073034941178
 70
    64
  0
VERTEX
  5
151831
  8
PULSADOR
 10
1.1499999927384861
 20
15.68186055700553
 30
9.6100035948085711
 70
    64
  0
VERTEX
  5
151832
  8
PULSADOR
 10
1.1499999927384861
 20
15.669801509260649
 30
9.6050085736833388
 70
    64
  0
VERTEX
  5
151833
  8
PULSADOR
 10
1.1499999927384861
 20
15.659446170201321
 30
9.5970626425534427
 70
    64
  0
VERTEX
  5
151834
  8
PULSADOR
 10
1.1499999927384861
 20
15.65150023907143
 30
9.5867073034941157
 70
    64
  0
VERTEX
  5
151835
  8
PULSADOR
 10
1.1499999927384861
 20
15.646505217946199
 30
9.5746482557492421
 70
    64
  0
VERTEX
  5
151836
  8
PULSADOR
 10
1.1499999927384861
 20
15.644801509260651
 30
9.5617073034941171
 70
    64
  0
SEQEND
  5
151837
  8
PULSADOR
  0
POLYLINE
  5
151838
  8
PULSADOR
 66
     1
 10
0.0
 20
0.0
 30
0.0
 70
    16
 71
     7
 72
     7
  0
VERTEX
  5
151839
  8
PULSADOR
 10
1.149999992738485
 20
15.69480150926065
 30
6.3848014807402071
 70
    64
  0
VERTEX
  5
15183A
  8
PULSADOR
 10
1.1629409449936119
 20
15.69480150926065
 30
6.386505189425753
 70
    64
  0
VERTEX
  5
15183B
  8
PULSADOR
 10
1.174999992738486
 20
15.69480150926065
 30
6.3915002105509844
 70
    64
  0
VERTEX
  5
15183C
  8
PULSADOR
 10
1.185355331797814
 20
15.69480150926065
 30
6.3994461416808797
 70
    64
  0
VERTEX
  5
15183D
  8
PULSADOR
 10
1.193301262927708
 20
15.69480150926065
 30
6.4098014807402066
 70
    64
  0
VERTEX
  5
15183E
  8
PULSADOR
 10
1.198296284052939
 20
15.69480150926065
 30
6.4218605284850812
 70
    64
  0
VERTEX
  5
15183F
  8
PULSADOR
 10
1.1999999927384859
 20
15.69480150926065
 30
6.434801480740207
 70
    64
  0
VERTEX
  5
151840
  8
PULSADOR
 10
1.149999992738485
 20
15.69480150926065
 30
6.3848014807402071
 70
    64
  0
VERTEX
  5
151841
  8
PULSADOR
 10
1.162499992738486
 20
15.69145214435526
 30
6.386505189425753
 70
    64
  0
VERTEX
  5
151842
  8
PULSADOR
 10
1.174148138395712
 20
15.688331033133091
 30
6.3915002105509844
 70
    64
  0
VERTEX
  5
151843
  8
PULSADOR
 10
1.1841506278330971
 20
15.68565087416604
 30
6.3994461416808797
 70
    64
  0
VERTEX
  5
151844
  8
PULSADOR
 10
1.1918258079253761
 20
15.683594315858549
 30
6.4098014807402066
 70
    64
  0
VERTEX
  5
151845
  8
PULSADOR
 10
1.1966506278330971
 20
15.68230150926065
 30
6.4218605284850812
 70
    64
  0
VERTEX
  5
151846
  8
PULSADOR
 10
1.198296284052939
 20
15.68186055700553
 30
6.434801480740207
 70
    64
  0
VERTEX
  5
151847
  8
PULSADOR
 10
1.149999992738485
 20
15.69480150926065
 30
6.3848014807402071
 70
    64
  0
VERTEX
  5
151848
  8
PULSADOR
 10
1.161207186140587
 20
15.688331033133091
 30
6.386505189425753
 70
    64
  0
VERTEX
  5
151849
  8
PULSADOR
 10
1.1716506278330969
 20
15.68230150926065
 30
6.3915002105509844
 70
    64
  0
VERTEX
  5
15184A
  8
PULSADOR
 10
1.180618614523276
 20
15.67712383973099
 30
6.3994461416808797
 70
    64
  0
VERTEX
  5
15184B
  8
PULSADOR
 10
1.1874999927384859
 20
15.673150874166041
 30
6.4098014807402066
 70
    64
  0
VERTEX
  5
15184C
  8
PULSADOR
 10
1.1918258079253761
 20
15.67065336360343
 30
6.4218605284850812
 70
    64
  0
VERTEX
  5
15184D
  8
PULSADOR
 10
1.193301262927708
 20
15.669801509260649
 30
6.434801480740207
 70
    64
  0
VERTEX
  5
15184E
  8
PULSADOR
 10
1.149999992738485
 20
15.69480150926065
 30
6.3848014807402071
 70
    64
  0
VERTEX
  5
15184F
  8
PULSADOR
 10
1.159150627833097
 20
15.68565087416604
 30
6.386505189425753
 70
    64
  0
VERTEX
  5
151850
  8
PULSADOR
 10
1.16767766226815
 20
15.67712383973099
 30
6.3915002105509844
 70
    64
  0
VERTEX
  5
151851
  8
PULSADOR
 10
1.174999992738486
 20
15.669801509260649
 30
6.3994461416808797
 70
    64
  0
VERTEX
  5
151852
  8
PULSADOR
 10
1.180618614523276
 20
15.66418288747586
 30
6.4098014807402066
 70
    64
  0
VERTEX
  5
151853
  8
PULSADOR
 10
1.1841506278330971
 20
15.66065087416604
 30
6.4218605284850812
 70
    64
  0
VERTEX
  5
151854
  8
PULSADOR
 10
1.1853553317978129
 20
15.659446170201329
 30
6.434801480740207
 70
    64
  0
VERTEX
  5
151855
  8
PULSADOR
 10
1.149999992738485
 20
15.69480150926065
 30
6.3848014807402071
 70
    64
  0
VERTEX
  5
151856
  8
PULSADOR
 10
1.156470468866049
 20
15.683594315858549
 30
6.386505189425753
 70
    64
  0
VERTEX
  5
151857
  8
PULSADOR
 10
1.162499992738486
 20
15.673150874166041
 30
6.3915002105509844
 70
    64
  0
VERTEX
  5
151858
  8
PULSADOR
 10
1.16767766226815
 20
15.66418288747586
 30
6.3994461416808797
 70
    64
  0
VERTEX
  5
151859
  8
PULSADOR
 10
1.1716506278330969
 20
15.65730150926065
 30
6.4098014807402066
 70
    64
  0
VERTEX
  5
15185A
  8
PULSADOR
 10
1.174148138395712
 20
15.65297569407376
 30
6.4218605284850812
 70
    64
  0
VERTEX
  5
15185B
  8
PULSADOR
 10
1.174999992738486
 20
15.65150023907143
 30
6.434801480740207
 70
    64
  0
VERTEX
  5
15185C
  8
PULSADOR
 10
1.1499999927384861
 20
15.69480150926065
 30
6.3848014807402071
 70
    64
  0
VERTEX
  5
15185D
  8
PULSADOR
 10
1.1533493576438749
 20
15.68230150926065
 30
6.386505189425753
 70
    64
  0
VERTEX
  5
15185E
  8
PULSADOR
 10
1.156470468866049
 20
15.67065336360343
 30
6.3915002105509844
 70
    64
  0
VERTEX
  5
15185F
  8
PULSADOR
 10
1.159150627833097
 20
15.66065087416604
 30
6.3994461416808797
 70
    64
  0
VERTEX
  5
151860
  8
PULSADOR
 10
1.161207186140587
 20
15.65297569407376
 30
6.4098014807402066
 70
    64
  0
VERTEX
  5
151861
  8
PULSADOR
 10
1.162499992738486
 20
15.64815087416604
 30
6.4218605284850812
 70
    64
  0
VERTEX
  5
151862
  8
PULSADOR
 10
1.1629409449936119
 20
15.646505217946199
 30
6.434801480740207
 70
    64
  0
VERTEX
  5
151863
  8
PULSADOR
 10
1.1499999927384861
 20
15.69480150926065
 30
6.3848014807402071
 70
    64
  0
VERTEX
  5
151864
  8
PULSADOR
 10
1.1499999927384861
 20
15.68186055700553
 30
6.386505189425753
 70
    64
  0
VERTEX
  5
151865
  8
PULSADOR
 10
1.1499999927384861
 20
15.669801509260649
 30
6.3915002105509844
 70
    64
  0
VERTEX
  5
151866
  8
PULSADOR
 10
1.1499999927384861
 20
15.659446170201321
 30
6.3994461416808797
 70
    64
  0
VERTEX
  5
151867
  8
PULSADOR
 10
1.1499999927384861
 20
15.65150023907143
 30
6.4098014807402066
 70
    64
  0
VERTEX
  5
151868
  8
PULSADOR
 10
1.1499999927384861
 20
15.646505217946199
 30
6.4218605284850812
 70
    64
  0
VERTEX
  5
151869
  8
PULSADOR
 10
1.1499999927384861
 20
15.644801509260651
 30
6.434801480740207
 70
    64
  0
SEQEND
  5
15186A
  8
PULSADOR
  0
POLYLINE
  5
15186B
  8
PULSADOR
 66
     1
 10
0.0
 20
0.0
 30
0.0
 70
    16
 71
     2
 72
     7
  0
VERTEX
  5
15186C
  8
PULSADOR
 10
1.1999999927384859
 20
15.69480150926065
 30
9.5617073034941171
 70
    64
  0
VERTEX
  5
15186D
  8
PULSADOR
 10
1.198296284052939
 20
15.68186055700553
 30
9.5617073034941171
 70
    64
  0
VERTEX
  5
15186E
  8
PULSADOR
 10
1.1933012629277071
 20
15.669801509260649
 30
9.5617073034941171
 70
    64
  0
VERTEX
  5
15186F
  8
PULSADOR
 10
1.1853553317978129
 20
15.659446170201321
 30
9.5617073034941171
 70
    64
  0
VERTEX
  5
151870
  8
PULSADOR
 10
1.1749999927384851
 20
15.65150023907143
 30
9.5617073034941171
 70
    64
  0
VERTEX
  5
151871
  8
PULSADOR
 10
1.1629409449936119
 20
15.646505217946199
 30
9.5617073034941171
 70
    64
  0
VERTEX
  5
151872
  8
PULSADOR
 10
1.149999992738485
 20
15.644801509260651
 30
9.5617073034941171
 70
    64
  0
VERTEX
  5
151873
  8
PULSADOR
 10
1.1999999927384859
 20
15.69480150926065
 30
6.434801480740207
 70
    64
  0
VERTEX
  5
151874
  8
PULSADOR
 10
1.198296284052939
 20
15.68186055700553
 30
6.434801480740207
 70
    64
  0
VERTEX
  5
151875
  8
PULSADOR
 10
1.1933012629277071
 20
15.669801509260649
 30
6.434801480740207
 70
    64
  0
VERTEX
  5
151876
  8
PULSADOR
 10
1.1853553317978129
 20
15.659446170201321
 30
6.434801480740207
 70
    64
  0
VERTEX
  5
151877
  8
PULSADOR
 10
1.1749999927384851
 20
15.65150023907143
 30
6.434801480740207
 70
    64
  0
VERTEX
  5
151878
  8
PULSADOR
 10
1.1629409449936119
 20
15.646505217946199
 30
6.434801480740207
 70
    64
  0
VERTEX
  5
151879
  8
PULSADOR
 10
1.149999992738485
 20
15.644801509260651
 30
6.434801480740207
 70
    64
  0
SEQEND
  5
15187A
  8
PULSADOR
  0
POLYLINE
  5
15187B
  8
PULSADOR
 66
     1
 10
0.0
 20
0.0
 30
0.0
 70
    16
 71
     2
 72
     7
  0
VERTEX
  5
15187C
  8
PULSADOR
 10
0.2499999927384862
 20
15.68694342362833
 30
6.3769453024565159
 70
    64
  0
VERTEX
  5
15187D
  8
PULSADOR
 10
0.2499999927384862
 20
15.674002869201241
 30
6.378648779244676
 70
    64
  0
VERTEX
  5
15187E
  8
PULSADOR
 10
0.2499999927384862
 20
15.66194417485897
 30
6.383643543784487
 70
    64
  0
VERTEX
  5
15187F
  8
PULSADOR
 10
0.2499999927384862
 20
15.65158915712254
 30
6.3915891960375371
 70
    64
  0
VERTEX
  5
151880
  8
PULSADOR
 10
0.2499999927384862
 20
15.64364352462086
 30
6.401944228929648
 70
    64
  0
VERTEX
  5
151881
  8
PULSADOR
 10
0.2499999927384862
 20
15.638648783082051
 30
6.4140029327990034
 70
    64
  0
VERTEX
  5
151882
  8
PULSADOR
 10
0.2499999927384862
 20
15.63694533097696
 30
6.4269434904753151
 70
    64
  0
VERTEX
  5
151883
  8
PULSADOR
 10
1.1499999927384861
 20
15.69480150926065
 30
6.384801480740208
 70
    64
  0
VERTEX
  5
151884
  8
PULSADOR
 10
1.1499999927384861
 20
15.68186055700553
 30
6.3865051894257538
 70
    64
  0
VERTEX
  5
151885
  8
PULSADOR
 10
1.1499999927384861
 20
15.669801509260649
 30
6.3915002105509862
 70
    64
  0
VERTEX
  5
151886
  8
PULSADOR
 10
1.1499999927384861
 20
15.659446170201321
 30
6.3994461416808797
 70
    64
  0
VERTEX
  5
151887
  8
PULSADOR
 10
1.1499999927384861
 20
15.65150023907143
 30
6.4098014807402066
 70
    64
  0
VERTEX
  5
151888
  8
PULSADOR
 10
1.1499999927384861
 20
15.646505217946199
 30
6.421860528485082
 70
    64
  0
VERTEX
  5
151889
  8
PULSADOR
 10
1.1499999927384861
 20
15.644801509260651
 30
6.434801480740207
 70
    64
  0
SEQEND
  5
15188A
  8
PULSADOR
  0
POLYLINE
  5
15188B
  8
PULSADOR
 66
     1
 10
0.0
 20
0.0
 30
0.0
 70
    16
 71
     2
 72
     7
  0
VERTEX
  5
15188C
  8
PULSADOR
 10
1.1499999927384861
 20
15.69480150926065
 30
9.6117073034941178
 70
    64
  0
VERTEX
  5
15188D
  8
PULSADOR
 10
1.1499999927384861
 20
15.68186055700553
 30
9.6100035948085711
 70
    64
  0
VERTEX
  5
15188E
  8
PULSADOR
 10
1.1499999927384861
 20
15.669801509260649
 30
9.6050085736833388
 70
    64
  0
VERTEX
  5
15188F
  8
PULSADOR
 10
1.1499999927384861
 20
15.659446170201321
 30
9.5970626425534427
 70
    64
  0
VERTEX
  5
151890
  8
PULSADOR
 10
1.1499999927384861
 20
15.65150023907143
 30
9.5867073034941157
 70
    64
  0
VERTEX
  5
151891
  8
PULSADOR
 10
1.1499999927384861
 20
15.646505217946199
 30
9.5746482557492421
 70
    64
  0
VERTEX
  5
151892
  8
PULSADOR
 10
1.1499999927384861
 20
15.644801509260651
 30
9.5617073034941171
 70
    64
  0
VERTEX
  5
151893
  8
PULSADOR
 10
0.2499999927384862
 20
15.68694342362833
 30
9.6195634817778064
 70
    64
  0
VERTEX
  5
151894
  8
PULSADOR
 10
0.2499999927384862
 20
15.674002869201241
 30
9.6178600049896481
 70
    64
  0
VERTEX
  5
151895
  8
PULSADOR
 10
0.2499999927384862
 20
15.66194417485897
 30
9.6128652404498354
 70
    64
  0
VERTEX
  5
151896
  8
PULSADOR
 10
0.2499999927384862
 20
15.65158915712254
 30
9.6049195881967862
 70
    64
  0
VERTEX
  5
151897
  8
PULSADOR
 10
0.2499999927384862
 20
15.64364352462086
 30
9.5945645553046752
 70
    64
  0
VERTEX
  5
151898
  8
PULSADOR
 10
0.2499999927384862
 20
15.638648783082051
 30
9.5825058514353216
 70
    64
  0
VERTEX
  5
151899
  8
PULSADOR
 10
0.2499999927384862
 20
15.63694533097696
 30
9.5695652937590072
 70
    64
  0
SEQEND
  5
15189A
  8
PULSADOR
  0
3DFACE
  5
15189B
  8
PULSADOR
 10
0.2499999927384862
 20
15.63694533097696
 30
6.4269434904753151
 11
1.1499999927384861
 21
15.644801509260651
 31
6.434801480740207
 12
1.1499999927384861
 22
15.644801509260651
 32
9.5617073034941171
 13
0.2499999927384862
 23
15.63694533097696
 33
9.5695652937590072
  0
POLYLINE
  5
15189C
  8
PULSADOR
 66
     1
 10
0.0
 20
0.0
 30
0.0
 70
    16
 71
    13
 72
     7
  0
VERTEX
  5
15189D
  8
PULSADOR
 10
1.1999999927384859
 20
2.4367853841663019
 30
7.9982543921171629
 70
    64
  0
VERTEX
  5
15189E
  8
PULSADOR
 10
1.1980457257089421
 20
2.4238476285485921
 30
7.9982543921171629
 70
    64
  0
VERTEX
  5
15189F
  8
PULSADOR
 10
1.19301571496199
 20
2.4117685693165192
 30
7.9982543921171629
 70
    64
  0
VERTEX
  5
1518A0
  8
PULSADOR
 10
1.185209565805355
 20
2.4012676781452562
 30
7.998254392117162
 70
    64
  0
VERTEX
  5
1518A1
  8
PULSADOR
 10
1.175092240211854
 20
2.3929704254142918
 30
7.9982543921171629
 70
    64
  0
VERTEX
  5
1518A2
  8
PULSADOR
 10
1.1632663620326671
 20
2.3873710249698381
 30
7.9982543921171647
 70
    64
  0
VERTEX
  5
1518A3
  8
PULSADOR
 10
1.1504363225800991
 20
2.3848029969925881
 30
7.998254392117162
 70
    64
  0
VERTEX
  5
1518A4
  8
PULSADOR
 10
1.1999999927384859
 20
2.4501393669190281
 30
8.2021620948450433
 70
    64
  0
VERTEX
  5
1518A5
  8
PULSADOR
 10
1.1980510255433861
 20
2.437413693385694
 30
8.2028380183468954
 70
    64
  0
VERTEX
  5
1518A6
  8
PULSADOR
 10
1.1930227614338309
 20
2.425466100236314
 30
8.2041308946118896
 70
    64
  0
VERTEX
  5
1518A7
  8
PULSADOR
 10
1.1852154633709631
 20
2.4150337630522771
 30
8.2057077955846296
 70
    64
  0
VERTEX
  5
1518A8
  8
PULSADOR
 10
1.1750953740749099
 20
2.4067617056818218
 30
8.2072380163735872
 70
    64
  0
VERTEX
  5
1518A9
  8
PULSADOR
 10
1.1632668632446559
 20
2.4011662780337302
 30
8.2083939982368541
 70
    64
  0
VERTEX
  5
1518AA
  8
PULSADOR
 10
1.1504363225800991
 20
2.3986062981479321
 30
8.2088520395237836
 70
    64
  0
VERTEX
  5
1518AB
  8
PULSADOR
 10
1.1999999927384859
 20
2.489973193549353
 30
8.4025865103814361
 70
    64
  0
VERTEX
  5
1518AC
  8
PULSADOR
 10
1.1980656780268479
 20
2.477841099063288
 30
8.4042477648423208
 70
    64
  0
VERTEX
  5
1518AD
  8
PULSADOR
 10
1.1930422428559719
 20
2.4662750571186849
 30
8.4069065669158611
 70
    64
  0
VERTEX
  5
1518AE
  8
PULSADOR
 10
1.1852317684052871
 20
2.4560557635448048
 30
8.4099720894354526
 70
    64
  0
VERTEX
  5
1518AF
  8
PULSADOR
 10
1.1751040382845339
 20
2.4478768759341638
 30
8.4128618747925863
 70
    64
  0
VERTEX
  5
1518B0
  8
PULSADOR
 10
1.1632682489483901
 20
2.44231051805217
 30
8.415005309706693
 70
    64
  0
VERTEX
  5
1518B1
  8
PULSADOR
 10
1.1504363225800991
 20
2.4397800232332001
 30
8.4158463017113938
 70
    64
  0
VERTEX
  5
1518B2
  8
PULSADOR
 10
1.1999999927384859
 20
2.5556063960993098
 30
8.5961038553667244
 70
    64
  0
VERTEX
  5
1518B3
  8
PULSADOR
 10
1.198087812629524
 20
2.5443844922978598
 30
8.5989874507133983
 70
    64
  0
VERTEX
  5
1518B4
  8
PULSADOR
 10
1.193071672238359
 20
2.533428604823281
 30
8.6030443281328761
 70
    64
  0
VERTEX
  5
1518B5
  8
PULSADOR
 10
1.185256399414587
 20
2.523575042275755
 30
8.6074936715319446
 70
    64
  0
VERTEX
  5
1518B6
  8
PULSADOR
 10
1.17511712677141
 20
2.5155807996622341
 30
8.6115723193539395
 70
    64
  0
VERTEX
  5
1518B7
  8
PULSADOR
 10
1.1632703422455219
 20
2.5100921242897081
 30
8.6145420941714903
 70
    64
  0
VERTEX
  5
1518B8
  8
PULSADOR
 10
1.1504363225801
 20
2.5076196781848958
 30
8.6156954483996486
 70
    64
  0
VERTEX
  5
1518B9
  8
PULSADOR
 10
1.199999992738485
 20
2.6459177844877031
 30
8.7794083376209286
 70
    64
  0
VERTEX
  5
1518BA
  8
PULSADOR
 10
1.198115558821613
 20
2.6358566466110269
 30
8.783679202084123
 70
    64
  0
VERTEX
  5
1518BB
  8
PULSADOR
 10
1.193108562590927
 20
2.6257151573357871
 30
8.7891261939667622
 70
    64
  0
VERTEX
  5
1518BC
  8
PULSADOR
 10
1.1852872749051191
 20
2.6163844700412562
 30
8.7948390627981858
 70
    64
  0
VERTEX
  5
1518BD
  8
PULSADOR
 10
1.1751335334662281
 20
2.6086861075173191
 30
8.7999368515609842
 70
    64
  0
VERTEX
  5
1518BE
  8
PULSADOR
 10
1.1632729662376999
 20
2.6033443654921662
 30
8.8035800583855988
 70
    64
  0
VERTEX
  5
1518BF
  8
PULSADOR
 10
1.1504363225801
 20
2.6009645073491661
 30
8.8049800042521547
 70
    64
  0
VERTEX
  5
1518C0
  8
PULSADOR
 10
1.1999999927384859
 20
2.759364599425842
 30
8.9493686278875408
 70
    64
  0
VERTEX
  5
1518C1
  8
PULSADOR
 10
1.198147046073307
 20
2.7506476676853731
 30
8.9551200746841353
 70
    64
  0
VERTEX
  5
1518C2
  8
PULSADOR
 10
1.1931504269236179
 20
2.74149771422399
 30
8.9619102764323681
 70
    64
  0
VERTEX
  5
1518C3
  8
PULSADOR
 10
1.1853223133831381
 20
2.7328479326670201
 30
8.9687523971863108
 70
    64
  0
VERTEX
  5
1518C4
  8
PULSADOR
 10
1.1751521522996731
 20
2.7255728746277841
 30
8.9747021026621052
 70
    64
  0
VERTEX
  5
1518C5
  8
PULSADOR
 10
1.1632759440265761
 20
2.720465208303585
 30
8.9788752055538374
 70
    64
  0
VERTEX
  5
1518C6
  8
PULSADOR
 10
1.1504363225801
 20
2.7182173543388211
 30
8.9804612570651265
 70
    64
  0
VERTEX
  5
1518C7
  8
PULSADOR
 10
1.1999999927384859
 20
2.894008866859282
 30
9.1030813512855495
 70
    64
  0
VERTEX
  5
1518C8
  8
PULSADOR
 10
1.198180403854805
 20
2.8867514199065551
 30
9.1103356878065114
 70
    64
  0
VERTEX
  5
1518C9
  8
PULSADOR
 10
1.193194778246369
 20
2.8787404674308412
 30
9.1183847740778994
 70
    64
  0
VERTEX
  5
1518CA
  8
PULSADOR
 10
1.1853594333549009
 20
2.870927172127625
 30
9.1262098750426812
 70
    64
  0
VERTEX
  5
1518CB
  8
PULSADOR
 10
1.175171877202432
 20
2.8642156960445622
 30
9.1328487501608286
 70
    64
  0
VERTEX
  5
1518CC
  8
PULSADOR
 10
1.163279098713802
 20
2.859444572962655
 30
9.1374191081060303
 70
    64
  0
VERTEX
  5
1518CD
  8
PULSADOR
 10
1.1504363225800991
 20
2.8573719898301611
 30
9.1391366730477586
 70
    64
  0
VERTEX
  5
1518CE
  8
PULSADOR
 10
1.199999992738485
 20
3.047550503731411
 30
9.2379206846929343
 70
    64
  0
VERTEX
  5
1518CF
  8
PULSADOR
 10
1.198213761636304
 20
3.0417987225999861
 30
9.2466299533074192
 70
    64
  0
VERTEX
  5
1518D0
  8
PULSADOR
 10
1.19323912956912
 20
3.035042223693837
 30
9.2558180300248392
 70
    64
  0
VERTEX
  5
1518D1
  8
PULSADOR
 10
1.1853965533266619
 20
3.0282155030034472
 30
9.2644702489002082
 70
    64
  0
VERTEX
  5
1518D2
  8
PULSADOR
 10
1.1751916021051909
 20
3.0222176972356261
 30
9.2716424313604477
 70
    64
  0
VERTEX
  5
1518D3
  8
PULSADOR
 10
1.163282253401027
 20
3.0178985699799119
 30
9.2764901502819992
 70
    64
  0
VERTEX
  5
1518D4
  8
PULSADOR
 10
1.1504363225801
 20
3.0160474387132439
 30
9.2782912710233205
 70
    64
  0
VERTEX
  5
1518D5
  8
PULSADOR
 10
1.1999999927384859
 20
3.2173666095341971
 30
9.3515832128061902
 70
    64
  0
VERTEX
  5
1518D6
  8
PULSADOR
 10
1.1982452488879991
 20
3.2130967488116342
 30
9.3616300500385812
 70
    64
  0
VERTEX
  5
1518D7
  8
PULSADOR
 10
1.193280993901809
 20
3.207676071400984
 30
9.3718038023328631
 70
    64
  0
VERTEX
  5
1518D8
  8
PULSADOR
 10
1.185431591804682
 20
3.2019778278342881
 30
9.3811204785553972
 70
    64
  0
VERTEX
  5
1518D9
  8
PULSADOR
 10
1.175210220938637
 20
3.1968508979373
 30
9.3886797831532842
 70
    64
  0
VERTEX
  5
1518DA
  8
PULSADOR
 10
1.1632852311899029
 20
3.1931101320641799
 30
9.3936998638532181
 70
    64
  0
VERTEX
  5
1518DB
  8
PULSADOR
 10
1.1504363225801
 20
3.191528719248403
 30
9.3955440765237803
 70
    64
  0
VERTEX
  5
1518DC
  8
PULSADOR
 10
1.1999999927384859
 20
3.40055627244167
 30
9.442127276614741
 70
    64
  0
VERTEX
  5
1518DD
  8
PULSADOR
 10
1.198272995080087
 20
3.3976739535134199
 30
9.4533258753343716
 70
    64
  0
VERTEX
  5
1518DE
  8
PULSADOR
 10
1.1933178842543779
 20
3.393634613975951
 30
9.4643009730186112
 70
    64
  0
VERTEX
  5
1518DF
  8
PULSADOR
 10
1.1854624672952121
 20
3.3891962672382481
 30
9.4741157748783387
 70
    64
  0
VERTEX
  5
1518E0
  8
PULSADOR
 10
1.175226627633454
 20
3.3851022390068422
 30
9.4819288206218602
 70
    64
  0
VERTEX
  5
1518E1
  8
PULSADOR
 10
1.163287855182082
 20
3.382075346154938
 30
9.487033564255654
 70
    64
  0
VERTEX
  5
1518E2
  8
PULSADOR
 10
1.1504363225800991
 20
3.380813297170512
 30
9.4888888609353295
 70
    64
  0
VERTEX
  5
1518E3
  8
PULSADOR
 10
1.199999992738485
 20
3.5939901246178891
 30
9.5080061421133912
 70
    64
  0
VERTEX
  5
1518E4
  8
PULSADOR
 10
1.1982951296827631
 20
3.5923297636446012
 30
9.5201032995335861
 70
    64
  0
VERTEX
  5
1518E5
  8
PULSADOR
 10
1.1933473136367641
 20
3.5896799967530231
 30
9.5316670171007303
 70
    64
  0
VERTEX
  5
1518E6
  8
PULSADOR
 10
1.185487098304512
 20
3.5866206246703012
 30
9.5418133477379712
 70
    64
  0
VERTEX
  5
1518E7
  8
PULSADOR
 10
1.1752397161203321
 20
3.5837244850646388
 30
9.5497629638443975
 70
    64
  0
VERTEX
  5
1518E8
  8
PULSADOR
 10
1.163289948479213
 20
3.5815546928980719
 30
9.5548845919185865
 70
    64
  0
VERTEX
  5
1518E9
  8
PULSADOR
 10
1.1504363225800991
 20
3.5806624598981509
 30
9.556728468636507
 70
    64
  0
VERTEX
  5
1518EA
  8
PULSADOR
 10
1.1999999927384859
 20
3.794363800162639
 30
9.5480944226428335
 70
    64
  0
VERTEX
  5
1518EB
  8
PULSADOR
 10
1.1983097821662261
 20
3.793688181045705
 30
9.5607706553898204
 70
    64
  0
VERTEX
  5
1518EC
  8
PULSADOR
 10
1.193366795058908
 20
3.7923978723816161
 30
9.57268465968491
 70
    64
  0
VERTEX
  5
1518ED
  8
PULSADOR
 10
1.1855034033388381
 20
3.7908228230385772
 30
9.5829992810642324
 70
    64
  0
VERTEX
  5
1518EE
  8
PULSADOR
 10
1.175248380329956
 20
3.789291132322258
 30
9.5909881309340577
 70
    64
  0
VERTEX
  5
1518EF
  8
PULSADOR
 10
1.1632913341829481
 20
3.7881283169444999
 30
9.5960815729784912
 70
    64
  0
VERTEX
  5
1518F0
  8
PULSADOR
 10
1.1504363225800991
 20
3.7876567318204919
 30
9.597902144781937
 70
    64
  0
VERTEX
  5
1518F1
  8
PULSADOR
 10
1.199999992738485
 20
3.998254382490634
 30
9.5617073034941171
 70
    64
  0
VERTEX
  5
1518F2
  8
PULSADOR
 10
1.1983150820006689
 20
3.998254382490634
 30
9.5745780098046982
 70
    64
  0
VERTEX
  5
1518F3
  8
PULSADOR
 10
1.193373841530746
 20
3.9982543824906331
 30
9.5865812655191363
 70
    64
  0
VERTEX
  5
1518F4
  8
PULSADOR
 10
1.1855093009044451
 20
3.998254382490634
 30
9.5969080755718608
 70
    64
  0
VERTEX
  5
1518F5
  8
PULSADOR
 10
1.1752515141930091
 20
3.998254382490634
 30
9.6048624339313093
 70
    64
  0
VERTEX
  5
1518F6
  8
PULSADOR
 10
1.163291835394936
 20
3.998254382490634
 30
9.6099082329933658
 70
    64
  0
VERTEX
  5
1518F7
  8
PULSADOR
 10
1.1504363225800991
 20
3.998254382490634
 30
9.611705396145485
 70
    64
  0
SEQEND
  5
1518F8
  8
PULSADOR
  0
POLYLINE
  5
1518F9
  8
PULSADOR
 66
     1
 10
0.0
 20
0.0
 30
0.0
 70
    16
 71
    13
 72
     7
  0
VERTEX
  5
1518FA
  8
PULSADOR
 10
1.1999999927384859
 20
2.4367853841663019
 30
7.9982543921171629
 70
    64
  0
VERTEX
  5
1518FB
  8
PULSADOR
 10
1.1980457257089421
 20
2.4238476285485921
 30
7.9982543921171629
 70
    64
  0
VERTEX
  5
1518FC
  8
PULSADOR
 10
1.19301571496199
 20
2.4117685693165192
 30
7.9982543921171629
 70
    64
  0
VERTEX
  5
1518FD
  8
PULSADOR
 10
1.185209565805355
 20
2.4012676781452562
 30
7.9982543921171576
 70
    64
  0
VERTEX
  5
1518FE
  8
PULSADOR
 10
1.175092240211854
 20
2.3929704254142918
 30
7.9982543921171603
 70
    64
  0
VERTEX
  5
1518FF
  8
PULSADOR
 10
1.1632663620326671
 20
2.3873710249698381
 30
7.998254392117162
 70
    64
  0
VERTEX
  5
151900
  8
PULSADOR
 10
1.1504363225800991
 20
2.3848029969925881
 30
7.9982543921171576
 70
    64
  0
VERTEX
  5
151901
  8
PULSADOR
 10
1.1999999927384859
 20
2.4501393669190281
 30
7.7943466893892861
 70
    64
  0
VERTEX
  5
151902
  8
PULSADOR
 10
1.1980510255433861
 20
2.437413693385694
 30
7.7936707658874287
 70
    64
  0
VERTEX
  5
151903
  8
PULSADOR
 10
1.1930227614338309
 20
2.425466100236314
 30
7.7923778896224372
 70
    64
  0
VERTEX
  5
151904
  8
PULSADOR
 10
1.1852154633709631
 20
2.4150337630522771
 30
7.7908009886496981
 70
    64
  0
VERTEX
  5
151905
  8
PULSADOR
 10
1.1750953740749099
 20
2.4067617056818218
 30
7.7892707678607387
 70
    64
  0
VERTEX
  5
151906
  8
PULSADOR
 10
1.1632668632446559
 20
2.4011662780337302
 30
7.7881147859974726
 70
    64
  0
VERTEX
  5
151907
  8
PULSADOR
 10
1.1504363225800991
 20
2.3986062981479321
 30
7.7876567447105396
 70
    64
  0
VERTEX
  5
151908
  8
PULSADOR
 10
1.1999999927384859
 20
2.489973193549353
 30
7.5939222738528933
 70
    64
  0
VERTEX
  5
151909
  8
PULSADOR
 10
1.1980656780268479
 20
2.477841099063288
 30
7.5922610193920113
 70
    64
  0
VERTEX
  5
15190A
  8
PULSADOR
 10
1.1930422428559719
 20
2.4662750571186849
 30
7.5896022173184701
 70
    64
  0
VERTEX
  5
15190B
  8
PULSADOR
 10
1.1852317684052871
 20
2.4560557635448048
 30
7.5865366947988706
 70
    64
  0
VERTEX
  5
15190C
  8
PULSADOR
 10
1.1751040382845339
 20
2.4478768759341638
 30
7.5836469094417396
 70
    64
  0
VERTEX
  5
15190D
  8
PULSADOR
 10
1.1632682489483901
 20
2.44231051805217
 30
7.5815034745276346
 70
    64
  0
VERTEX
  5
15190E
  8
PULSADOR
 10
1.1504363225800991
 20
2.4397800232332001
 30
7.5806624825229347
 70
    64
  0
VERTEX
  5
15190F
  8
PULSADOR
 10
1.1999999927384859
 20
2.5556063960993098
 30
7.4004049288675979
 70
    64
  0
VERTEX
  5
151910
  8
PULSADOR
 10
1.198087812629524
 20
2.5443844922978598
 30
7.3975213335209311
 70
    64
  0
VERTEX
  5
151911
  8
PULSADOR
 10
1.193071672238359
 20
2.533428604823281
 30
7.3934644561014471
 70
    64
  0
VERTEX
  5
151912
  8
PULSADOR
 10
1.185256399414587
 20
2.523575042275755
 30
7.3890151127023778
 70
    64
  0
VERTEX
  5
151913
  8
PULSADOR
 10
1.17511712677141
 20
2.5155807996622341
 30
7.3849364648803846
 70
    64
  0
VERTEX
  5
151914
  8
PULSADOR
 10
1.1632703422455219
 20
2.5100921242897081
 30
7.38196669006284
 70
    64
  0
VERTEX
  5
151915
  8
PULSADOR
 10
1.1504363225801
 20
2.5076196781848958
 30
7.3808133358346817
 70
    64
  0
VERTEX
  5
151916
  8
PULSADOR
 10
1.199999992738485
 20
2.6459177844877022
 30
7.217100446613399
 70
    64
  0
VERTEX
  5
151917
  8
PULSADOR
 10
1.198115558821613
 20
2.6358566466110269
 30
7.2128295821502038
 70
    64
  0
VERTEX
  5
151918
  8
PULSADOR
 10
1.193108562590927
 20
2.6257151573357871
 30
7.207382590267561
 70
    64
  0
VERTEX
  5
151919
  8
PULSADOR
 10
1.1852872749051191
 20
2.6163844700412562
 30
7.2016697214361374
 70
    64
  0
VERTEX
  5
15191A
  8
PULSADOR
 10
1.1751335334662281
 20
2.6086861075173191
 30
7.1965719326733444
 70
    64
  0
VERTEX
  5
15191B
  8
PULSADOR
 10
1.1632729662376999
 20
2.6033443654921662
 30
7.1929287258487236
 70
    64
  0
VERTEX
  5
15191C
  8
PULSADOR
 10
1.1504363225801
 20
2.6009645073491661
 30
7.1915287799821677
 70
    64
  0
VERTEX
  5
15191D
  8
PULSADOR
 10
1.1999999927384859
 20
2.759364599425842
 30
7.0471401563467841
 70
    64
  0
VERTEX
  5
15191E
  8
PULSADOR
 10
1.198147046073307
 20
2.7506476676853731
 30
7.0413887095501959
 70
    64
  0
VERTEX
  5
15191F
  8
PULSADOR
 10
1.1931504269236179
 20
2.74149771422399
 30
7.0345985078019559
 70
    64
  0
VERTEX
  5
151920
  8
PULSADOR
 10
1.1853223133831381
 20
2.7328479326670201
 30
7.0277563870480151
 70
    64
  0
VERTEX
  5
151921
  8
PULSADOR
 10
1.1751521522996731
 20
2.7255728746277841
 30
7.0218066815722198
 70
    64
  0
VERTEX
  5
151922
  8
PULSADOR
 10
1.1632759440265761
 20
2.720465208303585
 30
7.0176335786804902
 70
    64
  0
VERTEX
  5
151923
  8
PULSADOR
 10
1.1504363225801
 20
2.7182173543388211
 30
7.0160475271692011
 70
    64
  0
VERTEX
  5
151924
  8
PULSADOR
 10
1.1999999927384859
 20
2.894008866859282
 30
6.8934274329487772
 70
    64
  0
VERTEX
  5
151925
  8
PULSADOR
 10
1.198180403854805
 20
2.8867514199065551
 30
6.8861730964278154
 70
    64
  0
VERTEX
  5
151926
  8
PULSADOR
 10
1.193194778246369
 20
2.8787404674308412
 30
6.8781240101564247
 70
    64
  0
VERTEX
  5
151927
  8
PULSADOR
 10
1.1853594333549009
 20
2.870927172127625
 30
6.8702989091916447
 70
    64
  0
VERTEX
  5
151928
  8
PULSADOR
 10
1.175171877202432
 20
2.8642156960445622
 30
6.863660034073499
 70
    64
  0
VERTEX
  5
151929
  8
PULSADOR
 10
1.163279098713802
 20
2.859444572962655
 30
6.8590896761282991
 70
    64
  0
VERTEX
  5
15192A
  8
PULSADOR
 10
1.1504363225800991
 20
2.8573719898301611
 30
6.8573721111865691
 70
    64
  0
VERTEX
  5
15192B
  8
PULSADOR
 10
1.199999992738485
 20
3.047550503731411
 30
6.7585880995413916
 70
    64
  0
VERTEX
  5
15192C
  8
PULSADOR
 10
1.198213761636304
 20
3.0417987225999861
 30
6.7498788309269067
 70
    64
  0
VERTEX
  5
15192D
  8
PULSADOR
 10
1.19323912956912
 20
3.035042223693837
 30
6.7406907542094858
 70
    64
  0
VERTEX
  5
15192E
  8
PULSADOR
 10
1.1853965533266619
 20
3.0282155030034472
 30
6.7320385353341159
 70
    64
  0
VERTEX
  5
15192F
  8
PULSADOR
 10
1.1751916021051909
 20
3.0222176972356261
 30
6.7248663528738808
 70
    64
  0
VERTEX
  5
151930
  8
PULSADOR
 10
1.163282253401027
 20
3.0178985699799119
 30
6.7200186339523267
 70
    64
  0
VERTEX
  5
151931
  8
PULSADOR
 10
1.1504363225801
 20
3.0160474387132439
 30
6.7182175132110071
 70
    64
  0
VERTEX
  5
151932
  8
PULSADOR
 10
1.1999999927384859
 20
3.2173666095341971
 30
6.6449255714281348
 70
    64
  0
VERTEX
  5
151933
  8
PULSADOR
 10
1.1982452488879991
 20
3.2130967488116342
 30
6.6348787341957474
 70
    64
  0
VERTEX
  5
151934
  8
PULSADOR
 10
1.193280993901809
 20
3.207676071400984
 30
6.624704981901461
 70
    64
  0
VERTEX
  5
151935
  8
PULSADOR
 10
1.185431591804682
 20
3.201977827834289
 30
6.6153883056789251
 70
    64
  0
VERTEX
  5
151936
  8
PULSADOR
 10
1.175210220938637
 20
3.1968508979373
 30
6.607829001081039
 70
    64
  0
VERTEX
  5
151937
  8
PULSADOR
 10
1.1632852311899029
 20
3.1931101320641799
 30
6.6028089203811069
 70
    64
  0
VERTEX
  5
151938
  8
PULSADOR
 10
1.1504363225801
 20
3.1915287192484039
 30
6.6009647077105482
 70
    64
  0
VERTEX
  5
151939
  8
PULSADOR
 10
1.1999999927384859
 20
3.40055627244167
 30
6.5543815076195866
 70
    64
  0
VERTEX
  5
15193A
  8
PULSADOR
 10
1.198272995080087
 20
3.3976739535134191
 30
6.5431829088999569
 70
    64
  0
VERTEX
  5
15193B
  8
PULSADOR
 10
1.1933178842543779
 20
3.393634613975951
 30
6.5322078112157174
 70
    64
  0
VERTEX
  5
15193C
  8
PULSADOR
 10
1.1854624672952121
 20
3.3891962672382481
 30
6.5223930093559899
 70
    64
  0
VERTEX
  5
15193D
  8
PULSADOR
 10
1.175226627633454
 20
3.3851022390068422
 30
6.514579963612471
 70
    64
  0
VERTEX
  5
15193E
  8
PULSADOR
 10
1.163287855182082
 20
3.382075346154938
 30
6.5094752199786701
 70
    64
  0
VERTEX
  5
15193F
  8
PULSADOR
 10
1.1504363225800991
 20
3.380813297170512
 30
6.5076199232989982
 70
    64
  0
VERTEX
  5
151940
  8
PULSADOR
 10
1.199999992738485
 20
3.593990124617886
 30
6.4885026421209391
 70
    64
  0
VERTEX
  5
151941
  8
PULSADOR
 10
1.1982951296827631
 20
3.592329763644599
 30
6.4764054847007397
 70
    64
  0
VERTEX
  5
151942
  8
PULSADOR
 10
1.1933473136367641
 20
3.5896799967530222
 30
6.4648417671336
 70
    64
  0
VERTEX
  5
151943
  8
PULSADOR
 10
1.185487098304512
 20
3.5866206246702999
 30
6.4546954364963591
 70
    64
  0
VERTEX
  5
151944
  8
PULSADOR
 10
1.1752397161203321
 20
3.5837244850646379
 30
6.4467458203899319
 70
    64
  0
VERTEX
  5
151945
  8
PULSADOR
 10
1.163289948479213
 20
3.5815546928980719
 30
6.4416241923157358
 70
    64
  0
VERTEX
  5
151946
  8
PULSADOR
 10
1.1504363225800991
 20
3.5806624598981509
 30
6.4397803155978206
 70
    64
  0
VERTEX
  5
151947
  8
PULSADOR
 10
1.1999999927384859
 20
3.7943638001626372
 30
6.4484143615914933
 70
    64
  0
VERTEX
  5
151948
  8
PULSADOR
 10
1.198309782166227
 20
3.7936881810457019
 30
6.4357381288445046
 70
    64
  0
VERTEX
  5
151949
  8
PULSADOR
 10
1.193366795058908
 20
3.7923978723816152
 30
6.4238241245494141
 70
    64
  0
VERTEX
  5
15194A
  8
PULSADOR
 10
1.1855034033388381
 20
3.790822823038575
 30
6.4135095031700944
 70
    64
  0
VERTEX
  5
15194B
  8
PULSADOR
 10
1.175248380329956
 20
3.7892911323222571
 30
6.4055206533002718
 70
    64
  0
VERTEX
  5
15194C
  8
PULSADOR
 10
1.1632913341829481
 20
3.7881283169444999
 30
6.4004272112558356
 70
    64
  0
VERTEX
  5
15194D
  8
PULSADOR
 10
1.1504363225800991
 20
3.7876567318204919
 30
6.3986066394523942
 70
    64
  0
VERTEX
  5
15194E
  8
PULSADOR
 10
1.199999992738485
 20
3.998254382490634
 30
6.4348014807402114
 70
    64
  0
VERTEX
  5
15194F
  8
PULSADOR
 10
1.1983150820006689
 20
3.998254382490634
 30
6.421930774429625
 70
    64
  0
VERTEX
  5
151950
  8
PULSADOR
 10
1.193373841530746
 20
3.9982543824906331
 30
6.4099275187151887
 70
    64
  0
VERTEX
  5
151951
  8
PULSADOR
 10
1.1855093009044451
 20
3.998254382490634
 30
6.3996007086624651
 70
    64
  0
VERTEX
  5
151952
  8
PULSADOR
 10
1.1752515141930091
 20
3.998254382490634
 30
6.391646350303021
 70
    64
  0
VERTEX
  5
151953
  8
PULSADOR
 10
1.163291835394936
 20
3.998254382490634
 30
6.38660055124096
 70
    64
  0
VERTEX
  5
151954
  8
PULSADOR
 10
1.1504363225800991
 20
3.998254382490634
 30
6.3848033880888426
 70
    64
  0
SEQEND
  5
151955
  8
PULSADOR
  0
POLYLINE
  5
151956
  8
PULSADOR
 66
     1
 10
0.0
 20
0.0
 30
0.0
 70
    16
 71
     2
 72
    13
  0
VERTEX
  5
151957
  8
PULSADOR
 10
1.1999999927384859
 20
2.4367853841663019
 30
7.9982543921171629
 70
    64
  0
VERTEX
  5
151958
  8
PULSADOR
 10
1.1999999927384859
 20
2.4501393669190281
 30
7.7943466893892861
 70
    64
  0
VERTEX
  5
151959
  8
PULSADOR
 10
1.1999999927384859
 20
2.489973193549353
 30
7.5939222738528924
 70
    64
  0
VERTEX
  5
15195A
  8
PULSADOR
 10
1.1999999927384859
 20
2.5556063960993098
 30
7.4004049288675997
 70
    64
  0
VERTEX
  5
15195B
  8
PULSADOR
 10
1.1999999927384859
 20
2.6459177844877022
 30
7.2171004466133981
 70
    64
  0
VERTEX
  5
15195C
  8
PULSADOR
 10
1.1999999927384859
 20
2.759364599425842
 30
7.0471401563467841
 70
    64
  0
VERTEX
  5
15195D
  8
PULSADOR
 10
1.1999999927384859
 20
2.894008866859282
 30
6.8934274329487772
 70
    64
  0
VERTEX
  5
15195E
  8
PULSADOR
 10
1.1999999927384859
 20
3.047550503731411
 30
6.7585880995413916
 70
    64
  0
VERTEX
  5
15195F
  8
PULSADOR
 10
1.1999999927384859
 20
3.2173666095341971
 30
6.6449255714281348
 70
    64
  0
VERTEX
  5
151960
  8
PULSADOR
 10
1.1999999927384859
 20
3.40055627244167
 30
6.5543815076195866
 70
    64
  0
VERTEX
  5
151961
  8
PULSADOR
 10
1.1999999927384859
 20
3.593990124617886
 30
6.4885026421209373
 70
    64
  0
VERTEX
  5
151962
  8
PULSADOR
 10
1.1999999927384859
 20
3.7943638001626359
 30
6.4484143615914933
 70
    64
  0
VERTEX
  5
151963
  8
PULSADOR
 10
1.1999999927384859
 20
3.998254382490634
 30
6.4348014807402114
 70
    64
  0
VERTEX
  5
151964
  8
PULSADOR
 10
1.1999999927384859
 20
2.4367853841663019
 30
7.9982543921171629
 70
    64
  0
VERTEX
  5
151965
  8
PULSADOR
 10
1.1999999927384859
 20
2.4501393669190281
 30
8.2021620948450398
 70
    64
  0
VERTEX
  5
151966
  8
PULSADOR
 10
1.1999999927384859
 20
2.489973193549353
 30
8.4025865103814361
 70
    64
  0
VERTEX
  5
151967
  8
PULSADOR
 10
1.1999999927384859
 20
2.5556063960993098
 30
8.5961038553667262
 70
    64
  0
VERTEX
  5
151968
  8
PULSADOR
 10
1.1999999927384859
 20
2.6459177844877022
 30
8.7794083376209286
 70
    64
  0
VERTEX
  5
151969
  8
PULSADOR
 10
1.1999999927384859
 20
2.759364599425842
 30
8.9493686278875444
 70
    64
  0
VERTEX
  5
15196A
  8
PULSADOR
 10
1.1999999927384859
 20
2.894008866859282
 30
9.1030813512855495
 70
    64
  0
VERTEX
  5
15196B
  8
PULSADOR
 10
1.1999999927384859
 20
3.0475505037314101
 30
9.2379206846929343
 70
    64
  0
VERTEX
  5
15196C
  8
PULSADOR
 10
1.1999999927384859
 20
3.2173666095341971
 30
9.3515832128061902
 70
    64
  0
VERTEX
  5
15196D
  8
PULSADOR
 10
1.1999999927384859
 20
3.4005562724416709
 30
9.442127276614741
 70
    64
  0
VERTEX
  5
15196E
  8
PULSADOR
 10
1.1999999927384859
 20
3.5939901246178891
 30
9.5080061421133912
 70
    64
  0
VERTEX
  5
15196F
  8
PULSADOR
 10
1.1999999927384859
 20
3.794363800162639
 30
9.5480944226428335
 70
    64
  0
VERTEX
  5
151970
  8
PULSADOR
 10
1.1999999927384859
 20
3.998254382490634
 30
9.5617073034941171
 70
    64
  0
SEQEND
  5
151971
  8
PULSADOR
  0
POLYLINE
  5
151972
  8
PULSADOR
 66
     1
 10
0.0
 20
0.0
 30
0.0
 70
    16
 71
     2
 72
    13
  0
VERTEX
  5
151973
  8
PULSADOR
 10
0.619999997506858
 20
3.998254382490634
 30
9.6163345312773192
 70
    64
  0
VERTEX
  5
151974
  8
PULSADOR
 10
0.619999997506858
 20
3.7868776067331749
 30
9.6027213483403706
 70
    64
  0
VERTEX
  5
151975
  8
PULSADOR
 10
0.619999997506858
 20
3.579090125975823
 30
9.5616138925712875
 70
    64
  0
VERTEX
  5
151976
  8
PULSADOR
 10
0.619999997506858
 20
3.378452602945154
 30
9.493716584587748
 70
    64
  0
VERTEX
  5
151977
  8
PULSADOR
 10
0.619999997506858
 20
3.1884031781258759
 30
9.4001929180366837
 70
    64
  0
VERTEX
  5
151978
  8
PULSADOR
 10
0.619999997506858
 20
3.0121985535131932
 30
9.2826455218749757
 70
    64
  0
VERTEX
  5
151979
  8
PULSADOR
 10
0.619999997506858
 20
2.8528581855094912
 30
9.1430886975927557
 70
    64
  0
VERTEX
  5
15197A
  8
PULSADOR
 10
0.619999997506858
 20
2.7131125432802921
 30
8.9839139019835166
 70
    64
  0
VERTEX
  5
15197B
  8
PULSADOR
 10
0.619999997506858
 20
2.5953563192183871
 30
8.8078487669511176
 70
    64
  0
VERTEX
  5
15197C
  8
PULSADOR
 10
0.619999997506858
 20
2.501607393305338
 30
8.617910358593452
 70
    64
  0
VERTEX
  5
15197D
  8
PULSADOR
 10
0.619999997506858
 20
2.4334722545603009
 30
8.4173534765188442
 70
    64
  0
VERTEX
  5
15197E
  8
PULSADOR
 10
0.619999997506858
 20
2.3921184721169668
 30
8.2096148793421921
 70
    64
  0
VERTEX
  5
15197F
  8
PULSADOR
 10
0.619999997506858
 20
2.3782546876664141
 30
7.9982543921171629
 70
    64
  0
VERTEX
  5
151980
  8
PULSADOR
 10
1.1504363225800991
 20
3.998254382490634
 30
9.611705396145485
 70
    64
  0
VERTEX
  5
151981
  8
PULSADOR
 10
1.1504363225800991
 20
3.787656731820491
 30
9.5979021447819335
 70
    64
  0
VERTEX
  5
151982
  8
PULSADOR
 10
1.1504363225800991
 20
3.58066245989815
 30
9.556728468636507
 70
    64
  0
VERTEX
  5
151983
  8
PULSADOR
 10
1.1504363225800991
 20
3.3808132971705112
 30
9.4888888609353295
 70
    64
  0
VERTEX
  5
151984
  8
PULSADOR
 10
1.1504363225800991
 20
3.191528719248403
 30
9.3955440765237803
 70
    64
  0
VERTEX
  5
151985
  8
PULSADOR
 10
1.1504363225800991
 20
3.016047438713243
 30
9.2782912710233205
 70
    64
  0
VERTEX
  5
151986
  8
PULSADOR
 10
1.1504363225800991
 20
2.8573719898301602
 30
9.139136673047755
 70
    64
  0
VERTEX
  5
151987
  8
PULSADOR
 10
1.1504363225800991
 20
2.7182173543388211
 30
8.9804612570651212
 70
    64
  0
VERTEX
  5
151988
  8
PULSADOR
 10
1.1504363225800991
 20
2.6009645073491661
 30
8.8049800042521547
 70
    64
  0
VERTEX
  5
151989
  8
PULSADOR
 10
1.1504363225800991
 20
2.5076196781848958
 30
8.6156954483996451
 70
    64
  0
VERTEX
  5
15198A
  8
PULSADOR
 10
1.1504363225800991
 20
2.4397800232332001
 30
8.4158463017113938
 70
    64
  0
VERTEX
  5
15198B
  8
PULSADOR
 10
1.1504363225800991
 20
2.398606298147933
 30
8.2088520395237872
 70
    64
  0
VERTEX
  5
15198C
  8
PULSADOR
 10
1.1504363225800991
 20
2.384802996992589
 30
7.9982543921171629
 70
    64
  0
SEQEND
  5
15198D
  8
PULSADOR
  0
POLYLINE
  5
15198E
  8
PULSADOR
 66
     1
 10
0.0
 20
0.0
 30
0.0
 70
    16
 71
     2
 72
    13
  0
VERTEX
  5
15198F
  8
PULSADOR
 10
0.619999997506858
 20
2.3782546876664141
 30
7.9982543921171629
 70
    64
  0
VERTEX
  5
151990
  8
PULSADOR
 10
0.619999997506858
 20
2.3921184721169668
 30
7.786893904892132
 70
    64
  0
VERTEX
  5
151991
  8
PULSADOR
 10
0.619999997506858
 20
2.4334722545603018
 30
7.5791553077154807
 70
    64
  0
VERTEX
  5
151992
  8
PULSADOR
 10
0.619999997506858
 20
2.501607393305338
 30
7.3785984256408721
 70
    64
  0
VERTEX
  5
151993
  8
PULSADOR
 10
0.619999997506858
 20
2.5953563192183879
 30
7.1886600172832074
 70
    64
  0
VERTEX
  5
151994
  8
PULSADOR
 10
0.619999997506858
 20
2.7131125432802929
 30
7.0125948822508102
 70
    64
  0
VERTEX
  5
151995
  8
PULSADOR
 10
0.619999997506858
 20
2.8528581855094912
 30
6.853420086641572
 70
    64
  0
VERTEX
  5
151996
  8
PULSADOR
 10
0.619999997506858
 20
3.0121985535131932
 30
6.713863262359351
 70
    64
  0
VERTEX
  5
151997
  8
PULSADOR
 10
0.619999997506858
 20
3.188403178125875
 30
6.5963158661976449
 70
    64
  0
VERTEX
  5
151998
  8
PULSADOR
 10
0.619999997506858
 20
3.3784526029451531
 30
6.5027921996465778
 70
    64
  0
VERTEX
  5
151999
  8
PULSADOR
 10
0.619999997506858
 20
3.5790901259758221
 30
6.4348948916630411
 70
    64
  0
VERTEX
  5
15199A
  8
PULSADOR
 10
0.619999997506858
 20
3.7868776067331731
 30
6.393787435893957
 70
    64
  0
VERTEX
  5
15199B
  8
PULSADOR
 10
0.619999997506858
 20
3.998254382490634
 30
6.3801742529570067
 70
    64
  0
VERTEX
  5
15199C
  8
PULSADOR
 10
1.1504363225800991
 20
2.384802996992589
 30
7.998254392117162
 70
    64
  0
VERTEX
  5
15199D
  8
PULSADOR
 10
1.1504363225800991
 20
2.398606298147933
 30
7.7876567447105414
 70
    64
  0
VERTEX
  5
15199E
  8
PULSADOR
 10
1.1504363225800991
 20
2.4397800232332001
 30
7.5806624825229347
 70
    64
  0
VERTEX
  5
15199F
  8
PULSADOR
 10
1.1504363225800991
 20
2.5076196781848958
 30
7.3808133358346799
 70
    64
  0
VERTEX
  5
1519A0
  8
PULSADOR
 10
1.1504363225800991
 20
2.6009645073491661
 30
7.1915287799821712
 70
    64
  0
VERTEX
  5
1519A1
  8
PULSADOR
 10
1.1504363225800991
 20
2.7182173543388211
 30
7.016047527169202
 70
    64
  0
VERTEX
  5
1519A2
  8
PULSADOR
 10
1.1504363225800991
 20
2.8573719898301602
 30
6.8573721111865709
 70
    64
  0
VERTEX
  5
1519A3
  8
PULSADOR
 10
1.1504363225800991
 20
3.016047438713243
 30
6.718217513211008
 70
    64
  0
VERTEX
  5
1519A4
  8
PULSADOR
 10
1.1504363225800991
 20
3.1915287192484039
 30
6.6009647077105482
 70
    64
  0
VERTEX
  5
1519A5
  8
PULSADOR
 10
1.1504363225800991
 20
3.3808132971705112
 30
6.5076199232989991
 70
    64
  0
VERTEX
  5
1519A6
  8
PULSADOR
 10
1.1504363225800991
 20
3.58066245989815
 30
6.4397803155978188
 70
    64
  0
VERTEX
  5
1519A7
  8
PULSADOR
 10
1.1504363225800991
 20
3.787656731820491
 30
6.3986066394523942
 70
    64
  0
VERTEX
  5
1519A8
  8
PULSADOR
 10
1.1504363225800991
 20
3.998254382490634
 30
6.3848033880888426
 70
    64
  0
SEQEND
  5
1519A9
  8
PULSADOR
  0
POLYLINE
  5
1519AA
  8
PULSADOR
 66
     1
 10
0.0
 20
0.0
 30
0.0
 70
    16
 71
    13
 72
     7
  0
VERTEX
  5
1519AB
  8
PULSADOR
 10
1.1999999927384859
 20
22.559723380814962
 30
7.9982543921171629
 70
    64
  0
VERTEX
  5
1519AC
  8
PULSADOR
 10
1.1980457257089421
 20
22.572661136432679
 30
7.9982543921171629
 70
    64
  0
VERTEX
  5
1519AD
  8
PULSADOR
 10
1.19301571496199
 20
22.58474019566475
 30
7.9982543921171629
 70
    64
  0
VERTEX
  5
1519AE
  8
PULSADOR
 10
1.185209565805355
 20
22.595241086836008
 30
7.998254392117162
 70
    64
  0
VERTEX
  5
1519AF
  8
PULSADOR
 10
1.175092240211854
 20
22.60353833956697
 30
7.9982543921171629
 70
    64
  0
VERTEX
  5
1519B0
  8
PULSADOR
 10
1.1632663620326671
 20
22.60913774001143
 30
7.9982543921171647
 70
    64
  0
VERTEX
  5
1519B1
  8
PULSADOR
 10
1.1504363225800991
 20
22.611705767988681
 30
7.998254392117162
 70
    64
  0
VERTEX
  5
1519B2
  8
PULSADOR
 10
1.1999999927384859
 20
22.546369398062239
 30
8.2021620948450433
 70
    64
  0
VERTEX
  5
1519B3
  8
PULSADOR
 10
1.1980510255433861
 20
22.559095071595571
 30
8.2028380183468954
 70
    64
  0
VERTEX
  5
1519B4
  8
PULSADOR
 10
1.1930227614338309
 20
22.571042664744951
 30
8.2041308946118896
 70
    64
  0
VERTEX
  5
1519B5
  8
PULSADOR
 10
1.1852154633709631
 20
22.58147500192899
 30
8.2057077955846296
 70
    64
  0
VERTEX
  5
1519B6
  8
PULSADOR
 10
1.1750953740749099
 20
22.589747059299452
 30
8.2072380163735872
 70
    64
  0
VERTEX
  5
1519B7
  8
PULSADOR
 10
1.1632668632446559
 20
22.595342486947541
 30
8.2083939982368541
 70
    64
  0
VERTEX
  5
1519B8
  8
PULSADOR
 10
1.1504363225800991
 20
22.597902466833329
 30
8.2088520395237836
 70
    64
  0
VERTEX
  5
1519B9
  8
PULSADOR
 10
1.1999999927384859
 20
22.506535571431911
 30
8.4025865103814361
 70
    64
  0
VERTEX
  5
1519BA
  8
PULSADOR
 10
1.1980656780268479
 20
22.518667665917981
 30
8.4042477648423208
 70
    64
  0
VERTEX
  5
1519BB
  8
PULSADOR
 10
1.1930422428559719
 20
22.530233707862589
 30
8.4069065669158611
 70
    64
  0
VERTEX
  5
1519BC
  8
PULSADOR
 10
1.1852317684052871
 20
22.540453001436461
 30
8.4099720894354526
 70
    64
  0
VERTEX
  5
1519BD
  8
PULSADOR
 10
1.1751040382845339
 20
22.548631889047101
 30
8.4128618747925863
 70
    64
  0
VERTEX
  5
1519BE
  8
PULSADOR
 10
1.1632682489483901
 20
22.554198246929101
 30
8.415005309706693
 70
    64
  0
VERTEX
  5
1519BF
  8
PULSADOR
 10
1.1504363225800991
 20
22.556728741748071
 30
8.4158463017113938
 70
    64
  0
VERTEX
  5
1519C0
  8
PULSADOR
 10
1.1999999927384859
 20
22.440902368881961
 30
8.5961038553667244
 70
    64
  0
VERTEX
  5
1519C1
  8
PULSADOR
 10
1.198087812629524
 20
22.45212427268341
 30
8.5989874507133983
 70
    64
  0
VERTEX
  5
1519C2
  8
PULSADOR
 10
1.193071672238359
 20
22.46308016015799
 30
8.6030443281328761
 70
    64
  0
VERTEX
  5
1519C3
  8
PULSADOR
 10
1.185256399414587
 20
22.472933722705509
 30
8.6074936715319446
 70
    64
  0
VERTEX
  5
1519C4
  8
PULSADOR
 10
1.17511712677141
 20
22.480927965319029
 30
8.6115723193539395
 70
    64
  0
VERTEX
  5
1519C5
  8
PULSADOR
 10
1.1632703422455219
 20
22.486416640691559
 30
8.6145420941714903
 70
    64
  0
VERTEX
  5
1519C6
  8
PULSADOR
 10
1.1504363225801
 20
22.48888908679637
 30
8.6156954483996486
 70
    64
  0
VERTEX
  5
1519C7
  8
PULSADOR
 10
1.199999992738485
 20
22.350590980493561
 30
8.7794083376209286
 70
    64
  0
VERTEX
  5
1519C8
  8
PULSADOR
 10
1.198115558821613
 20
22.36065211837024
 30
8.783679202084123
 70
    64
  0
VERTEX
  5
1519C9
  8
PULSADOR
 10
1.193108562590927
 20
22.370793607645481
 30
8.7891261939667622
 70
    64
  0
VERTEX
  5
1519CA
  8
PULSADOR
 10
1.1852872749051191
 20
22.380124294940011
 30
8.7948390627981858
 70
    64
  0
VERTEX
  5
1519CB
  8
PULSADOR
 10
1.1751335334662281
 20
22.38782265746395
 30
8.7999368515609842
 70
    64
  0
VERTEX
  5
1519CC
  8
PULSADOR
 10
1.1632729662376999
 20
22.393164399489098
 30
8.8035800583855988
 70
    64
  0
VERTEX
  5
1519CD
  8
PULSADOR
 10
1.1504363225801
 20
22.3955442576321
 30
8.8049800042521547
 70
    64
  0
VERTEX
  5
1519CE
  8
PULSADOR
 10
1.1999999927384859
 20
22.237144165555431
 30
8.9493686278875408
 70
    64
  0
VERTEX
  5
1519CF
  8
PULSADOR
 10
1.198147046073307
 20
22.24586109729589
 30
8.9551200746841353
 70
    64
  0
VERTEX
  5
1519D0
  8
PULSADOR
 10
1.1931504269236179
 20
22.255011050757279
 30
8.9619102764323681
 70
    64
  0
VERTEX
  5
1519D1
  8
PULSADOR
 10
1.1853223133831381
 20
22.26366083231424
 30
8.9687523971863108
 70
    64
  0
VERTEX
  5
1519D2
  8
PULSADOR
 10
1.1751521522996731
 20
22.270935890353481
 30
8.9747021026621052
 70
    64
  0
VERTEX
  5
1519D3
  8
PULSADOR
 10
1.1632759440265761
 20
22.276043556677681
 30
8.9788752055538374
 70
    64
  0
VERTEX
  5
1519D4
  8
PULSADOR
 10
1.1504363225801
 20
22.278291410642449
 30
8.9804612570651265
 70
    64
  0
VERTEX
  5
1519D5
  8
PULSADOR
 10
1.1999999927384859
 20
22.102499898121991
 30
9.1030813512855495
 70
    64
  0
VERTEX
  5
1519D6
  8
PULSADOR
 10
1.198180403854805
 20
22.109757345074708
 30
9.1103356878065114
 70
    64
  0
VERTEX
  5
1519D7
  8
PULSADOR
 10
1.193194778246369
 20
22.11776829755043
 30
9.1183847740778994
 70
    64
  0
VERTEX
  5
1519D8
  8
PULSADOR
 10
1.1853594333549009
 20
22.125581592853639
 30
9.1262098750426812
 70
    64
  0
VERTEX
  5
1519D9
  8
PULSADOR
 10
1.175171877202432
 20
22.132293068936711
 30
9.1328487501608286
 70
    64
  0
VERTEX
  5
1519DA
  8
PULSADOR
 10
1.163279098713802
 20
22.13706419201861
 30
9.1374191081060303
 70
    64
  0
VERTEX
  5
1519DB
  8
PULSADOR
 10
1.1504363225800991
 20
22.139136775151108
 30
9.1391366730477586
 70
    64
  0
VERTEX
  5
1519DC
  8
PULSADOR
 10
1.199999992738485
 20
21.94895826124986
 30
9.2379206846929343
 70
    64
  0
VERTEX
  5
1519DD
  8
PULSADOR
 10
1.198213761636304
 20
21.954710042381279
 30
9.2466299533074192
 70
    64
  0
VERTEX
  5
1519DE
  8
PULSADOR
 10
1.19323912956912
 20
21.961466541287429
 30
9.2558180300248392
 70
    64
  0
VERTEX
  5
1519DF
  8
PULSADOR
 10
1.1853965533266619
 20
21.96829326197782
 30
9.2644702489002082
 70
    64
  0
VERTEX
  5
1519E0
  8
PULSADOR
 10
1.1751916021051909
 20
21.974291067745639
 30
9.2716424313604477
 70
    64
  0
VERTEX
  5
1519E1
  8
PULSADOR
 10
1.163282253401027
 20
21.978610195001359
 30
9.2764901502819992
 70
    64
  0
VERTEX
  5
1519E2
  8
PULSADOR
 10
1.1504363225801
 20
21.980461326268021
 30
9.2782912710233205
 70
    64
  0
VERTEX
  5
1519E3
  8
PULSADOR
 10
1.1999999927384859
 20
21.779142155447069
 30
9.3515832128061902
 70
    64
  0
VERTEX
  5
1519E4
  8
PULSADOR
 10
1.1982452488879991
 20
21.783412016169638
 30
9.3616300500385812
 70
    64
  0
VERTEX
  5
1519E5
  8
PULSADOR
 10
1.193280993901809
 20
21.788832693580279
 30
9.3718038023328631
 70
    64
  0
VERTEX
  5
1519E6
  8
PULSADOR
 10
1.185431591804682
 20
21.79453093714698
 30
9.3811204785553972
 70
    64
  0
VERTEX
  5
1519E7
  8
PULSADOR
 10
1.175210220938637
 20
21.799657867043969
 30
9.3886797831532842
 70
    64
  0
VERTEX
  5
1519E8
  8
PULSADOR
 10
1.1632852311899029
 20
21.803398632917091
 30
9.3936998638532181
 70
    64
  0
VERTEX
  5
1519E9
  8
PULSADOR
 10
1.1504363225801
 20
21.804980045732862
 30
9.3955440765237803
 70
    64
  0
VERTEX
  5
1519EA
  8
PULSADOR
 10
1.1999999927384859
 20
21.595952492539599
 30
9.442127276614741
 70
    64
  0
VERTEX
  5
1519EB
  8
PULSADOR
 10
1.198272995080087
 20
21.598834811467849
 30
9.4533258753343716
 70
    64
  0
VERTEX
  5
1519EC
  8
PULSADOR
 10
1.1933178842543779
 20
21.60287415100532
 30
9.4643009730186112
 70
    64
  0
VERTEX
  5
1519ED
  8
PULSADOR
 10
1.1854624672952121
 20
21.60731249774302
 30
9.4741157748783387
 70
    64
  0
VERTEX
  5
1519EE
  8
PULSADOR
 10
1.175226627633454
 20
21.61140652597442
 30
9.4819288206218602
 70
    64
  0
VERTEX
  5
1519EF
  8
PULSADOR
 10
1.163287855182082
 20
21.61443341882633
 30
9.487033564255654
 70
    64
  0
VERTEX
  5
1519F0
  8
PULSADOR
 10
1.1504363225800991
 20
21.615695467810749
 30
9.4888888609353295
 70
    64
  0
VERTEX
  5
1519F1
  8
PULSADOR
 10
1.199999992738485
 20
21.402518640363379
 30
9.5080061421133912
 70
    64
  0
VERTEX
  5
1519F2
  8
PULSADOR
 10
1.1982951296827631
 20
21.404179001336662
 30
9.5201032995335861
 70
    64
  0
VERTEX
  5
1519F3
  8
PULSADOR
 10
1.1933473136367641
 20
21.406828768228241
 30
9.5316670171007303
 70
    64
  0
VERTEX
  5
1519F4
  8
PULSADOR
 10
1.185487098304512
 20
21.409888140310969
 30
9.5418133477379712
 70
    64
  0
VERTEX
  5
1519F5
  8
PULSADOR
 10
1.1752397161203321
 20
21.412784279916629
 30
9.5497629638443975
 70
    64
  0
VERTEX
  5
1519F6
  8
PULSADOR
 10
1.163289948479213
 20
21.414954072083201
 30
9.5548845919185865
 70
    64
  0
VERTEX
  5
1519F7
  8
PULSADOR
 10
1.1504363225800991
 20
21.415846305083122
 30
9.556728468636507
 70
    64
  0
VERTEX
  5
1519F8
  8
PULSADOR
 10
1.1999999927384859
 20
21.202144964818629
 30
9.5480944226428335
 70
    64
  0
VERTEX
  5
1519F9
  8
PULSADOR
 10
1.1983097821662261
 20
21.202820583935559
 30
9.5607706553898204
 70
    64
  0
VERTEX
  5
1519FA
  8
PULSADOR
 10
1.193366795058908
 20
21.204110892599651
 30
9.57268465968491
 70
    64
  0
VERTEX
  5
1519FB
  8
PULSADOR
 10
1.1855034033388381
 20
21.20568594194269
 30
9.5829992810642324
 70
    64
  0
VERTEX
  5
1519FC
  8
PULSADOR
 10
1.175248380329956
 20
21.20721763265901
 30
9.5909881309340577
 70
    64
  0
VERTEX
  5
1519FD
  8
PULSADOR
 10
1.1632913341829481
 20
21.20838044803677
 30
9.5960815729784912
 70
    64
  0
VERTEX
  5
1519FE
  8
PULSADOR
 10
1.1504363225800991
 20
21.208852033160781
 30
9.597902144781937
 70
    64
  0
VERTEX
  5
1519FF
  8
PULSADOR
 10
1.199999992738485
 20
20.998254382490639
 30
9.5617073034941171
 70
    64
  0
VERTEX
  5
151A00
  8
PULSADOR
 10
1.1983150820006689
 20
20.998254382490639
 30
9.5745780098046982
 70
    64
  0
VERTEX
  5
151A01
  8
PULSADOR
 10
1.193373841530746
 20
20.998254382490639
 30
9.5865812655191363
 70
    64
  0
VERTEX
  5
151A02
  8
PULSADOR
 10
1.1855093009044451
 20
20.998254382490639
 30
9.5969080755718608
 70
    64
  0
VERTEX
  5
151A03
  8
PULSADOR
 10
1.1752515141930091
 20
20.998254382490639
 30
9.6048624339313093
 70
    64
  0
VERTEX
  5
151A04
  8
PULSADOR
 10
1.163291835394936
 20
20.998254382490639
 30
9.6099082329933658
 70
    64
  0
VERTEX
  5
151A05
  8
PULSADOR
 10
1.1504363225800991
 20
20.998254382490639
 30
9.611705396145485
 70
    64
  0
SEQEND
  5
151A06
  8
PULSADOR
  0
POLYLINE
  5
151A07
  8
PULSADOR
 66
     1
 10
0.0
 20
0.0
 30
0.0
 70
    16
 71
    13
 72
     7
  0
VERTEX
  5
151A08
  8
PULSADOR
 10
1.1999999927384859
 20
22.559723380814962
 30
7.9982543921171629
 70
    64
  0
VERTEX
  5
151A09
  8
PULSADOR
 10
1.1980457257089421
 20
22.572661136432679
 30
7.9982543921171629
 70
    64
  0
VERTEX
  5
151A0A
  8
PULSADOR
 10
1.19301571496199
 20
22.58474019566475
 30
7.9982543921171629
 70
    64
  0
VERTEX
  5
151A0B
  8
PULSADOR
 10
1.185209565805355
 20
22.595241086836008
 30
7.9982543921171576
 70
    64
  0
VERTEX
  5
151A0C
  8
PULSADOR
 10
1.175092240211854
 20
22.60353833956697
 30
7.9982543921171603
 70
    64
  0
VERTEX
  5
151A0D
  8
PULSADOR
 10
1.1632663620326671
 20
22.60913774001143
 30
7.998254392117162
 70
    64
  0
VERTEX
  5
151A0E
  8
PULSADOR
 10
1.1504363225800991
 20
22.611705767988681
 30
7.9982543921171576
 70
    64
  0
VERTEX
  5
151A0F
  8
PULSADOR
 10
1.1999999927384859
 20
22.546369398062239
 30
7.7943466893892861
 70
    64
  0
VERTEX
  5
151A10
  8
PULSADOR
 10
1.1980510255433861
 20
22.559095071595571
 30
7.7936707658874287
 70
    64
  0
VERTEX
  5
151A11
  8
PULSADOR
 10
1.1930227614338309
 20
22.571042664744951
 30
7.7923778896224372
 70
    64
  0
VERTEX
  5
151A12
  8
PULSADOR
 10
1.1852154633709631
 20
22.58147500192899
 30
7.7908009886496981
 70
    64
  0
VERTEX
  5
151A13
  8
PULSADOR
 10
1.1750953740749099
 20
22.589747059299452
 30
7.7892707678607387
 70
    64
  0
VERTEX
  5
151A14
  8
PULSADOR
 10
1.1632668632446559
 20
22.595342486947541
 30
7.7881147859974726
 70
    64
  0
VERTEX
  5
151A15
  8
PULSADOR
 10
1.1504363225800991
 20
22.597902466833329
 30
7.7876567447105396
 70
    64
  0
VERTEX
  5
151A16
  8
PULSADOR
 10
1.1999999927384859
 20
22.506535571431911
 30
7.5939222738528933
 70
    64
  0
VERTEX
  5
151A17
  8
PULSADOR
 10
1.1980656780268479
 20
22.518667665917981
 30
7.5922610193920113
 70
    64
  0
VERTEX
  5
151A18
  8
PULSADOR
 10
1.1930422428559719
 20
22.530233707862589
 30
7.5896022173184701
 70
    64
  0
VERTEX
  5
151A19
  8
PULSADOR
 10
1.1852317684052871
 20
22.540453001436461
 30
7.5865366947988706
 70
    64
  0
VERTEX
  5
151A1A
  8
PULSADOR
 10
1.1751040382845339
 20
22.548631889047101
 30
7.5836469094417396
 70
    64
  0
VERTEX
  5
151A1B
  8
PULSADOR
 10
1.1632682489483901
 20
22.554198246929101
 30
7.5815034745276346
 70
    64
  0
VERTEX
  5
151A1C
  8
PULSADOR
 10
1.1504363225800991
 20
22.556728741748071
 30
7.5806624825229347
 70
    64
  0
VERTEX
  5
151A1D
  8
PULSADOR
 10
1.1999999927384859
 20
22.440902368881961
 30
7.4004049288675979
 70
    64
  0
VERTEX
  5
151A1E
  8
PULSADOR
 10
1.198087812629524
 20
22.45212427268341
 30
7.3975213335209311
 70
    64
  0
VERTEX
  5
151A1F
  8
PULSADOR
 10
1.193071672238359
 20
22.46308016015799
 30
7.3934644561014471
 70
    64
  0
VERTEX
  5
151A20
  8
PULSADOR
 10
1.185256399414587
 20
22.472933722705509
 30
7.3890151127023778
 70
    64
  0
VERTEX
  5
151A21
  8
PULSADOR
 10
1.17511712677141
 20
22.480927965319029
 30
7.3849364648803846
 70
    64
  0
VERTEX
  5
151A22
  8
PULSADOR
 10
1.1632703422455219
 20
22.486416640691559
 30
7.38196669006284
 70
    64
  0
VERTEX
  5
151A23
  8
PULSADOR
 10
1.1504363225801
 20
22.48888908679637
 30
7.3808133358346817
 70
    64
  0
VERTEX
  5
151A24
  8
PULSADOR
 10
1.199999992738485
 20
22.350590980493561
 30
7.217100446613399
 70
    64
  0
VERTEX
  5
151A25
  8
PULSADOR
 10
1.198115558821613
 20
22.36065211837024
 30
7.2128295821502038
 70
    64
  0
VERTEX
  5
151A26
  8
PULSADOR
 10
1.193108562590927
 20
22.370793607645481
 30
7.207382590267561
 70
    64
  0
VERTEX
  5
151A27
  8
PULSADOR
 10
1.1852872749051191
 20
22.380124294940011
 30
7.2016697214361374
 70
    64
  0
VERTEX
  5
151A28
  8
PULSADOR
 10
1.1751335334662281
 20
22.38782265746395
 30
7.1965719326733444
 70
    64
  0
VERTEX
  5
151A29
  8
PULSADOR
 10
1.1632729662376999
 20
22.393164399489098
 30
7.1929287258487236
 70
    64
  0
VERTEX
  5
151A2A
  8
PULSADOR
 10
1.1504363225801
 20
22.3955442576321
 30
7.1915287799821677
 70
    64
  0
VERTEX
  5
151A2B
  8
PULSADOR
 10
1.1999999927384859
 20
22.237144165555431
 30
7.0471401563467841
 70
    64
  0
VERTEX
  5
151A2C
  8
PULSADOR
 10
1.198147046073307
 20
22.24586109729589
 30
7.0413887095501959
 70
    64
  0
VERTEX
  5
151A2D
  8
PULSADOR
 10
1.1931504269236179
 20
22.255011050757279
 30
7.0345985078019559
 70
    64
  0
VERTEX
  5
151A2E
  8
PULSADOR
 10
1.1853223133831381
 20
22.26366083231424
 30
7.0277563870480151
 70
    64
  0
VERTEX
  5
151A2F
  8
PULSADOR
 10
1.1751521522996731
 20
22.270935890353481
 30
7.0218066815722198
 70
    64
  0
VERTEX
  5
151A30
  8
PULSADOR
 10
1.1632759440265761
 20
22.276043556677681
 30
7.0176335786804902
 70
    64
  0
VERTEX
  5
151A31
  8
PULSADOR
 10
1.1504363225801
 20
22.278291410642449
 30
7.0160475271692011
 70
    64
  0
VERTEX
  5
151A32
  8
PULSADOR
 10
1.1999999927384859
 20
22.102499898121991
 30
6.8934274329487772
 70
    64
  0
VERTEX
  5
151A33
  8
PULSADOR
 10
1.198180403854805
 20
22.109757345074708
 30
6.8861730964278154
 70
    64
  0
VERTEX
  5
151A34
  8
PULSADOR
 10
1.193194778246369
 20
22.11776829755043
 30
6.8781240101564247
 70
    64
  0
VERTEX
  5
151A35
  8
PULSADOR
 10
1.1853594333549009
 20
22.125581592853639
 30
6.8702989091916447
 70
    64
  0
VERTEX
  5
151A36
  8
PULSADOR
 10
1.175171877202432
 20
22.132293068936711
 30
6.863660034073499
 70
    64
  0
VERTEX
  5
151A37
  8
PULSADOR
 10
1.163279098713802
 20
22.13706419201861
 30
6.8590896761282991
 70
    64
  0
VERTEX
  5
151A38
  8
PULSADOR
 10
1.1504363225800991
 20
22.139136775151108
 30
6.8573721111865691
 70
    64
  0
VERTEX
  5
151A39
  8
PULSADOR
 10
1.199999992738485
 20
21.94895826124986
 30
6.7585880995413916
 70
    64
  0
VERTEX
  5
151A3A
  8
PULSADOR
 10
1.198213761636304
 20
21.954710042381279
 30
6.7498788309269067
 70
    64
  0
VERTEX
  5
151A3B
  8
PULSADOR
 10
1.19323912956912
 20
21.961466541287429
 30
6.7406907542094858
 70
    64
  0
VERTEX
  5
151A3C
  8
PULSADOR
 10
1.1853965533266619
 20
21.96829326197782
 30
6.7320385353341159
 70
    64
  0
VERTEX
  5
151A3D
  8
PULSADOR
 10
1.1751916021051909
 20
21.974291067745639
 30
6.7248663528738808
 70
    64
  0
VERTEX
  5
151A3E
  8
PULSADOR
 10
1.163282253401027
 20
21.978610195001359
 30
6.7200186339523267
 70
    64
  0
VERTEX
  5
151A3F
  8
PULSADOR
 10
1.1504363225801
 20
21.980461326268021
 30
6.7182175132110071
 70
    64
  0
VERTEX
  5
151A40
  8
PULSADOR
 10
1.1999999927384859
 20
21.779142155447069
 30
6.6449255714281348
 70
    64
  0
VERTEX
  5
151A41
  8
PULSADOR
 10
1.1982452488879991
 20
21.783412016169638
 30
6.6348787341957474
 70
    64
  0
VERTEX
  5
151A42
  8
PULSADOR
 10
1.193280993901809
 20
21.788832693580279
 30
6.624704981901461
 70
    64
  0
VERTEX
  5
151A43
  8
PULSADOR
 10
1.185431591804682
 20
21.79453093714698
 30
6.6153883056789251
 70
    64
  0
VERTEX
  5
151A44
  8
PULSADOR
 10
1.175210220938637
 20
21.799657867043969
 30
6.607829001081039
 70
    64
  0
VERTEX
  5
151A45
  8
PULSADOR
 10
1.1632852311899029
 20
21.803398632917091
 30
6.6028089203811069
 70
    64
  0
VERTEX
  5
151A46
  8
PULSADOR
 10
1.1504363225801
 20
21.804980045732862
 30
6.6009647077105482
 70
    64
  0
VERTEX
  5
151A47
  8
PULSADOR
 10
1.1999999927384859
 20
21.595952492539599
 30
6.5543815076195866
 70
    64
  0
VERTEX
  5
151A48
  8
PULSADOR
 10
1.198272995080087
 20
21.598834811467849
 30
6.5431829088999569
 70
    64
  0
VERTEX
  5
151A49
  8
PULSADOR
 10
1.1933178842543779
 20
21.60287415100532
 30
6.5322078112157174
 70
    64
  0
VERTEX
  5
151A4A
  8
PULSADOR
 10
1.1854624672952121
 20
21.60731249774302
 30
6.5223930093559899
 70
    64
  0
VERTEX
  5
151A4B
  8
PULSADOR
 10
1.175226627633454
 20
21.61140652597442
 30
6.514579963612471
 70
    64
  0
VERTEX
  5
151A4C
  8
PULSADOR
 10
1.163287855182082
 20
21.61443341882633
 30
6.5094752199786701
 70
    64
  0
VERTEX
  5
151A4D
  8
PULSADOR
 10
1.1504363225800991
 20
21.615695467810749
 30
6.5076199232989982
 70
    64
  0
VERTEX
  5
151A4E
  8
PULSADOR
 10
1.199999992738485
 20
21.402518640363379
 30
6.4885026421209391
 70
    64
  0
VERTEX
  5
151A4F
  8
PULSADOR
 10
1.1982951296827631
 20
21.404179001336662
 30
6.4764054847007397
 70
    64
  0
VERTEX
  5
151A50
  8
PULSADOR
 10
1.1933473136367641
 20
21.406828768228241
 30
6.4648417671336
 70
    64
  0
VERTEX
  5
151A51
  8
PULSADOR
 10
1.185487098304512
 20
21.409888140310969
 30
6.4546954364963591
 70
    64
  0
VERTEX
  5
151A52
  8
PULSADOR
 10
1.1752397161203321
 20
21.412784279916629
 30
6.4467458203899319
 70
    64
  0
VERTEX
  5
151A53
  8
PULSADOR
 10
1.163289948479213
 20
21.414954072083201
 30
6.4416241923157358
 70
    64
  0
VERTEX
  5
151A54
  8
PULSADOR
 10
1.1504363225800991
 20
21.415846305083122
 30
6.4397803155978206
 70
    64
  0
VERTEX
  5
151A55
  8
PULSADOR
 10
1.1999999927384859
 20
21.202144964818629
 30
6.4484143615914933
 70
    64
  0
VERTEX
  5
151A56
  8
PULSADOR
 10
1.198309782166227
 20
21.202820583935559
 30
6.4357381288445046
 70
    64
  0
VERTEX
  5
151A57
  8
PULSADOR
 10
1.193366795058908
 20
21.204110892599651
 30
6.4238241245494141
 70
    64
  0
VERTEX
  5
151A58
  8
PULSADOR
 10
1.1855034033388381
 20
21.20568594194269
 30
6.4135095031700944
 70
    64
  0
VERTEX
  5
151A59
  8
PULSADOR
 10
1.175248380329956
 20
21.20721763265901
 30
6.4055206533002718
 70
    64
  0
VERTEX
  5
151A5A
  8
PULSADOR
 10
1.1632913341829481
 20
21.20838044803677
 30
6.4004272112558356
 70
    64
  0
VERTEX
  5
151A5B
  8
PULSADOR
 10
1.1504363225800991
 20
21.208852033160781
 30
6.3986066394523942
 70
    64
  0
VERTEX
  5
151A5C
  8
PULSADOR
 10
1.199999992738485
 20
20.998254382490639
 30
6.4348014807402114
 70
    64
  0
VERTEX
  5
151A5D
  8
PULSADOR
 10
1.1983150820006689
 20
20.998254382490639
 30
6.421930774429625
 70
    64
  0
VERTEX
  5
151A5E
  8
PULSADOR
 10
1.193373841530746
 20
20.998254382490639
 30
6.4099275187151887
 70
    64
  0
VERTEX
  5
151A5F
  8
PULSADOR
 10
1.1855093009044451
 20
20.998254382490639
 30
6.3996007086624651
 70
    64
  0
VERTEX
  5
151A60
  8
PULSADOR
 10
1.1752515141930091
 20
20.998254382490639
 30
6.391646350303021
 70
    64
  0
VERTEX
  5
151A61
  8
PULSADOR
 10
1.163291835394936
 20
20.998254382490639
 30
6.38660055124096
 70
    64
  0
VERTEX
  5
151A62
  8
PULSADOR
 10
1.1504363225800991
 20
20.998254382490639
 30
6.3848033880888426
 70
    64
  0
SEQEND
  5
151A63
  8
PULSADOR
  0
POLYLINE
  5
151A64
  8
PULSADOR
 66
     1
 10
0.0
 20
0.0
 30
0.0
 70
    16
 71
     2
 72
    13
  0
VERTEX
  5
151A65
  8
PULSADOR
 10
1.1999999927384859
 20
22.559723380814962
 30
7.9982543921171629
 70
    64
  0
VERTEX
  5
151A66
  8
PULSADOR
 10
1.1999999927384859
 20
22.546369398062239
 30
7.7943466893892861
 70
    64
  0
VERTEX
  5
151A67
  8
PULSADOR
 10
1.1999999927384859
 20
22.506535571431911
 30
7.5939222738528924
 70
    64
  0
VERTEX
  5
151A68
  8
PULSADOR
 10
1.1999999927384859
 20
22.440902368881961
 30
7.4004049288675997
 70
    64
  0
VERTEX
  5
151A69
  8
PULSADOR
 10
1.1999999927384859
 20
22.350590980493561
 30
7.2171004466133981
 70
    64
  0
VERTEX
  5
151A6A
  8
PULSADOR
 10
1.1999999927384859
 20
22.237144165555431
 30
7.0471401563467841
 70
    64
  0
VERTEX
  5
151A6B
  8
PULSADOR
 10
1.1999999927384859
 20
22.102499898121991
 30
6.8934274329487772
 70
    64
  0
VERTEX
  5
151A6C
  8
PULSADOR
 10
1.1999999927384859
 20
21.94895826124986
 30
6.7585880995413916
 70
    64
  0
VERTEX
  5
151A6D
  8
PULSADOR
 10
1.1999999927384859
 20
21.779142155447069
 30
6.6449255714281348
 70
    64
  0
VERTEX
  5
151A6E
  8
PULSADOR
 10
1.1999999927384859
 20
21.595952492539599
 30
6.5543815076195866
 70
    64
  0
VERTEX
  5
151A6F
  8
PULSADOR
 10
1.1999999927384859
 20
21.402518640363379
 30
6.4885026421209373
 70
    64
  0
VERTEX
  5
151A70
  8
PULSADOR
 10
1.1999999927384859
 20
21.202144964818629
 30
6.4484143615914933
 70
    64
  0
VERTEX
  5
151A71
  8
PULSADOR
 10
1.1999999927384859
 20
20.998254382490639
 30
6.4348014807402114
 70
    64
  0
VERTEX
  5
151A72
  8
PULSADOR
 10
1.1999999927384859
 20
22.559723380814962
 30
7.9982543921171629
 70
    64
  0
VERTEX
  5
151A73
  8
PULSADOR
 10
1.1999999927384859
 20
22.546369398062239
 30
8.2021620948450398
 70
    64
  0
VERTEX
  5
151A74
  8
PULSADOR
 10
1.1999999927384859
 20
22.506535571431911
 30
8.4025865103814361
 70
    64
  0
VERTEX
  5
151A75
  8
PULSADOR
 10
1.1999999927384859
 20
22.440902368881961
 30
8.5961038553667262
 70
    64
  0
VERTEX
  5
151A76
  8
PULSADOR
 10
1.1999999927384859
 20
22.350590980493561
 30
8.7794083376209286
 70
    64
  0
VERTEX
  5
151A77
  8
PULSADOR
 10
1.1999999927384859
 20
22.237144165555431
 30
8.9493686278875444
 70
    64
  0
VERTEX
  5
151A78
  8
PULSADOR
 10
1.1999999927384859
 20
22.102499898121991
 30
9.1030813512855495
 70
    64
  0
VERTEX
  5
151A79
  8
PULSADOR
 10
1.1999999927384859
 20
21.94895826124986
 30
9.2379206846929343
 70
    64
  0
VERTEX
  5
151A7A
  8
PULSADOR
 10
1.1999999927384859
 20
21.779142155447069
 30
9.3515832128061902
 70
    64
  0
VERTEX
  5
151A7B
  8
PULSADOR
 10
1.1999999927384859
 20
21.595952492539599
 30
9.442127276614741
 70
    64
  0
VERTEX
  5
151A7C
  8
PULSADOR
 10
1.1999999927384859
 20
21.402518640363379
 30
9.5080061421133912
 70
    64
  0
VERTEX
  5
151A7D
  8
PULSADOR
 10
1.1999999927384859
 20
21.202144964818629
 30
9.5480944226428335
 70
    64
  0
VERTEX
  5
151A7E
  8
PULSADOR
 10
1.1999999927384859
 20
20.998254382490639
 30
9.5617073034941171
 70
    64
  0
SEQEND
  5
151A7F
  8
PULSADOR
  0
POLYLINE
  5
151A80
  8
PULSADOR
 66
     1
 10
0.0
 20
0.0
 30
0.0
 70
    16
 71
     2
 72
    13
  0
VERTEX
  5
151A81
  8
PULSADOR
 10
0.619999997506858
 20
20.998254382490639
 30
9.6163345312773192
 70
    64
  0
VERTEX
  5
151A82
  8
PULSADOR
 10
0.619999997506858
 20
21.20963115824809
 30
9.6027213483403706
 70
    64
  0
VERTEX
  5
151A83
  8
PULSADOR
 10
0.619999997506858
 20
21.417418639005451
 30
9.5616138925712875
 70
    64
  0
VERTEX
  5
151A84
  8
PULSADOR
 10
0.619999997506858
 20
21.618056162036108
 30
9.493716584587748
 70
    64
  0
VERTEX
  5
151A85
  8
PULSADOR
 10
0.619999997506858
 20
21.80810558685539
 30
9.4001929180366837
 70
    64
  0
VERTEX
  5
151A86
  8
PULSADOR
 10
0.619999997506858
 20
21.984310211468081
 30
9.2826455218749757
 70
    64
  0
VERTEX
  5
151A87
  8
PULSADOR
 10
0.619999997506858
 20
22.143650579471782
 30
9.1430886975927557
 70
    64
  0
VERTEX
  5
151A88
  8
PULSADOR
 10
0.619999997506858
 20
22.283396221700979
 30
8.9839139019835166
 70
    64
  0
VERTEX
  5
151A89
  8
PULSADOR
 10
0.619999997506858
 20
22.401152445762879
 30
8.8078487669511176
 70
    64
  0
VERTEX
  5
151A8A
  8
PULSADOR
 10
0.619999997506858
 20
22.49490137167593
 30
8.617910358593452
 70
    64
  0
VERTEX
  5
151A8B
  8
PULSADOR
 10
0.619999997506858
 20
22.563036510420972
 30
8.4173534765188442
 70
    64
  0
VERTEX
  5
151A8C
  8
PULSADOR
 10
0.619999997506858
 20
22.604390292864299
 30
8.2096148793421921
 70
    64
  0
VERTEX
  5
151A8D
  8
PULSADOR
 10
0.619999997506858
 20
22.618254077314852
 30
7.9982543921171629
 70
    64
  0
VERTEX
  5
151A8E
  8
PULSADOR
 10
1.1504363225800991
 20
20.998254382490639
 30
9.611705396145485
 70
    64
  0
VERTEX
  5
151A8F
  8
PULSADOR
 10
1.1504363225800991
 20
21.208852033160781
 30
9.5979021447819335
 70
    64
  0
VERTEX
  5
151A90
  8
PULSADOR
 10
1.1504363225800991
 20
21.415846305083122
 30
9.556728468636507
 70
    64
  0
VERTEX
  5
151A91
  8
PULSADOR
 10
1.1504363225800991
 20
21.61569546781076
 30
9.4888888609353295
 70
    64
  0
VERTEX
  5
151A92
  8
PULSADOR
 10
1.1504363225800991
 20
21.804980045732862
 30
9.3955440765237803
 70
    64
  0
VERTEX
  5
151A93
  8
PULSADOR
 10
1.1504363225800991
 20
21.980461326268021
 30
9.2782912710233205
 70
    64
  0
VERTEX
  5
151A94
  8
PULSADOR
 10
1.1504363225800991
 20
22.139136775151108
 30
9.139136673047755
 70
    64
  0
VERTEX
  5
151A95
  8
PULSADOR
 10
1.1504363225800991
 20
22.278291410642449
 30
8.9804612570651212
 70
    64
  0
VERTEX
  5
151A96
  8
PULSADOR
 10
1.1504363225800991
 20
22.3955442576321
 30
8.8049800042521547
 70
    64
  0
VERTEX
  5
151A97
  8
PULSADOR
 10
1.1504363225800991
 20
22.48888908679637
 30
8.6156954483996451
 70
    64
  0
VERTEX
  5
151A98
  8
PULSADOR
 10
1.1504363225800991
 20
22.556728741748071
 30
8.4158463017113938
 70
    64
  0
VERTEX
  5
151A99
  8
PULSADOR
 10
1.1504363225800991
 20
22.597902466833329
 30
8.2088520395237872
 70
    64
  0
VERTEX
  5
151A9A
  8
PULSADOR
 10
1.1504363225800991
 20
22.611705767988681
 30
7.9982543921171629
 70
    64
  0
SEQEND
  5
151A9B
  8
PULSADOR
  0
POLYLINE
  5
151A9C
  8
PULSADOR
 66
     1
 10
0.0
 20
0.0
 30
0.0
 70
    16
 71
     2
 72
    13
  0
VERTEX
  5
151A9D
  8
PULSADOR
 10
0.619999997506858
 20
22.618254077314852
 30
7.9982543921171629
 70
    64
  0
VERTEX
  5
151A9E
  8
PULSADOR
 10
0.619999997506858
 20
22.604390292864299
 30
7.786893904892132
 70
    64
  0
VERTEX
  5
151A9F
  8
PULSADOR
 10
0.619999997506858
 20
22.563036510420972
 30
7.5791553077154807
 70
    64
  0
VERTEX
  5
151AA0
  8
PULSADOR
 10
0.619999997506858
 20
22.49490137167593
 30
7.3785984256408721
 70
    64
  0
VERTEX
  5
151AA1
  8
PULSADOR
 10
0.619999997506858
 20
22.401152445762879
 30
7.1886600172832074
 70
    64
  0
VERTEX
  5
151AA2
  8
PULSADOR
 10
0.619999997506858
 20
22.283396221700979
 30
7.0125948822508102
 70
    64
  0
VERTEX
  5
151AA3
  8
PULSADOR
 10
0.619999997506858
 20
22.143650579471782
 30
6.853420086641572
 70
    64
  0
VERTEX
  5
151AA4
  8
PULSADOR
 10
0.619999997506858
 20
21.984310211468081
 30
6.713863262359351
 70
    64
  0
VERTEX
  5
151AA5
  8
PULSADOR
 10
0.619999997506858
 20
21.80810558685539
 30
6.5963158661976449
 70
    64
  0
VERTEX
  5
151AA6
  8
PULSADOR
 10
0.619999997506858
 20
21.618056162036108
 30
6.5027921996465778
 70
    64
  0
VERTEX
  5
151AA7
  8
PULSADOR
 10
0.619999997506858
 20
21.417418639005451
 30
6.4348948916630411
 70
    64
  0
VERTEX
  5
151AA8
  8
PULSADOR
 10
0.619999997506858
 20
21.20963115824809
 30
6.393787435893957
 70
    64
  0
VERTEX
  5
151AA9
  8
PULSADOR
 10
0.619999997506858
 20
20.998254382490639
 30
6.3801742529570067
 70
    64
  0
VERTEX
  5
151AAA
  8
PULSADOR
 10
1.1504363225800991
 20
22.611705767988681
 30
7.998254392117162
 70
    64
  0
VERTEX
  5
151AAB
  8
PULSADOR
 10
1.1504363225800991
 20
22.597902466833329
 30
7.7876567447105414
 70
    64
  0
VERTEX
  5
151AAC
  8
PULSADOR
 10
1.1504363225800991
 20
22.556728741748071
 30
7.5806624825229347
 70
    64
  0
VERTEX
  5
151AAD
  8
PULSADOR
 10
1.1504363225800991
 20
22.48888908679637
 30
7.3808133358346799
 70
    64
  0
VERTEX
  5
151AAE
  8
PULSADOR
 10
1.1504363225800991
 20
22.3955442576321
 30
7.1915287799821712
 70
    64
  0
VERTEX
  5
151AAF
  8
PULSADOR
 10
1.1504363225800991
 20
22.278291410642449
 30
7.016047527169202
 70
    64
  0
VERTEX
  5
151AB0
  8
PULSADOR
 10
1.1504363225800991
 20
22.139136775151108
 30
6.8573721111865709
 70
    64
  0
VERTEX
  5
151AB1
  8
PULSADOR
 10
1.1504363225800991
 20
21.980461326268021
 30
6.718217513211008
 70
    64
  0
VERTEX
  5
151AB2
  8
PULSADOR
 10
1.1504363225800991
 20
21.804980045732862
 30
6.6009647077105482
 70
    64
  0
VERTEX
  5
151AB3
  8
PULSADOR
 10
1.1504363225800991
 20
21.61569546781076
 30
6.5076199232989991
 70
    64
  0
VERTEX
  5
151AB4
  8
PULSADOR
 10
1.1504363225800991
 20
21.415846305083122
 30
6.4397803155978188
 70
    64
  0
VERTEX
  5
151AB5
  8
PULSADOR
 10
1.1504363225800991
 20
21.208852033160781
 30
6.3986066394523942
 70
    64
  0
VERTEX
  5
151AB6
  8
PULSADOR
 10
1.1504363225800991
 20
20.998254382490639
 30
6.3848033880888426
 70
    64
  0
SEQEND
  5
151AB7
  8
PULSADOR
  0
3DFACE
  5
151AB8
  8
CROMAT
 10
0.619999997506858
 20
3.998254382490634
 30
9.6163345312773192
 11
1.1504363225800991
 21
3.998254382490634
 31
9.611705396145485
 12
1.149999992738485
 22
15.501707255720611
 32
9.6117073034941178
 13
0.2499999927384862
 23
15.509565341352941
 33
9.6195634817778064
  0
POLYLINE
  5
151AB9
  8
PULSADOR
 66
     1
 10
0.0
 20
0.0
 30
0.0
 70
    16
 71
     2
 72
     7
  0
VERTEX
  5
151ABA
  8
PULSADOR
 10
1.149999992738485
 20
15.501707255720611
 30
9.6117073034941178
 70
    64
  0
VERTEX
  5
151ABB
  8
PULSADOR
 10
1.1629409449936119
 20
15.501707255720611
 30
9.6100035948085711
 70
    64
  0
VERTEX
  5
151ABC
  8
PULSADOR
 10
1.174999992738486
 20
15.501707255720611
 30
9.6050085736833388
 70
    64
  0
VERTEX
  5
151ABD
  8
PULSADOR
 10
1.185355331797814
 20
15.501707255720611
 30
9.5970626425534427
 70
    64
  0
VERTEX
  5
151ABE
  8
PULSADOR
 10
1.193301262927708
 20
15.501707255720611
 30
9.5867073034941157
 70
    64
  0
VERTEX
  5
151ABF
  8
PULSADOR
 10
1.198296284052939
 20
15.501707255720611
 30
9.5746482557492421
 70
    64
  0
VERTEX
  5
151AC0
  8
PULSADOR
 10
1.1999999927384859
 20
15.501707255720611
 30
9.5617073034941171
 70
    64
  0
VERTEX
  5
151AC1
  8
PULSADOR
 10
1.1504363225800991
 20
3.998254382490634
 30
9.611705396145485
 70
    64
  0
VERTEX
  5
151AC2
  8
PULSADOR
 10
1.1632918353949371
 20
3.998254382490634
 30
9.6099082329933658
 70
    64
  0
VERTEX
  5
151AC3
  8
PULSADOR
 10
1.17525151419301
 20
3.998254382490634
 30
9.6048624339313058
 70
    64
  0
VERTEX
  5
151AC4
  8
PULSADOR
 10
1.1855093009044451
 20
3.998254382490634
 30
9.5969080755718608
 70
    64
  0
VERTEX
  5
151AC5
  8
PULSADOR
 10
1.193373841530746
 20
3.998254382490634
 30
9.5865812655191398
 70
    64
  0
VERTEX
  5
151AC6
  8
PULSADOR
 10
1.1983150820006681
 20
3.998254382490634
 30
9.5745780098047035
 70
    64
  0
VERTEX
  5
151AC7
  8
PULSADOR
 10
1.199999992738485
 20
3.998254382490634
 30
9.5617073034941171
 70
    64
  0
SEQEND
  5
151AC8
  8
PULSADOR
  0
3DFACE
  5
151AC9
  8
PULSADOR
 10
0.619999997506858
 20
3.998254382490634
 30
6.3801742529570067
 11
1.1504363225800991
 21
3.998254382490634
 31
6.3848033880888426
 12
1.149999992738485
 22
15.501707255720611
 32
6.3848014807402071
 13
0.2499999927384862
 23
15.509565341352941
 33
6.3769453024565159
  0
POLYLINE
  5
151ACA
  8
PULSADOR
 66
     1
 10
0.0
 20
0.0
 30
0.0
 70
    16
 71
     2
 72
     7
  0
VERTEX
  5
151ACB
  8
PULSADOR
 10
1.149999992738485
 20
15.501707255720611
 30
6.3848014807402071
 70
    64
  0
VERTEX
  5
151ACC
  8
PULSADOR
 10
1.1629409449936119
 20
15.501707255720611
 30
6.386505189425753
 70
    64
  0
VERTEX
  5
151ACD
  8
PULSADOR
 10
1.174999992738486
 20
15.501707255720611
 30
6.3915002105509853
 70
    64
  0
VERTEX
  5
151ACE
  8
PULSADOR
 10
1.185355331797814
 20
15.501707255720611
 30
6.3994461416808797
 70
    64
  0
VERTEX
  5
151ACF
  8
PULSADOR
 10
1.193301262927708
 20
15.501707255720611
 30
6.4098014807402066
 70
    64
  0
VERTEX
  5
151AD0
  8
PULSADOR
 10
1.198296284052939
 20
15.501707255720611
 30
6.421860528485082
 70
    64
  0
VERTEX
  5
151AD1
  8
PULSADOR
 10
1.1999999927384859
 20
15.501707255720611
 30
6.434801480740207
 70
    64
  0
VERTEX
  5
151AD2
  8
PULSADOR
 10
1.1504363225800991
 20
3.998254382490634
 30
6.3848033880888426
 70
    64
  0
VERTEX
  5
151AD3
  8
PULSADOR
 10
1.1632918353949371
 20
3.998254382490634
 30
6.3866005512409609
 70
    64
  0
VERTEX
  5
151AD4
  8
PULSADOR
 10
1.17525151419301
 20
3.998254382490634
 30
6.391646350303021
 70
    64
  0
VERTEX
  5
151AD5
  8
PULSADOR
 10
1.1855093009044451
 20
3.998254382490634
 30
6.3996007086624651
 70
    64
  0
VERTEX
  5
151AD6
  8
PULSADOR
 10
1.193373841530746
 20
3.998254382490634
 30
6.4099275187151878
 70
    64
  0
VERTEX
  5
151AD7
  8
PULSADOR
 10
1.1983150820006689
 20
3.998254382490634
 30
6.421930774429625
 70
    64
  0
VERTEX
  5
151AD8
  8
PULSADOR
 10
1.199999992738485
 20
3.998254382490634
 30
6.4348014807402114
 70
    64
  0
SEQEND
  5
151AD9
  8
PULSADOR
  0
3DFACE
  5
151ADA
  8
PULSADOR
 10
1.199999992738485
 20
3.998254382490634
 30
6.4348014807402114
 11
1.1999999927384859
 21
3.998254382490634
 31
9.5617073034941171
 12
1.1999999927384859
 22
15.501707255720611
 32
9.5617073034941171
 13
1.1499999927384861
 23
15.55170725572061
 33
6.3848014807402071
  0
3DFACE
  5
151ADB
  8
PULSADOR
 10
0.2499999927384862
 20
15.68694342362833
 30
6.3769453024565159
 11
1.149999992738485
 21
15.69480150926065
 31
6.3848014807402071
 12
1.1504363225800991
 22
20.998254382490639
 32
6.3848033880888426
 13
0.619999997506858
 23
20.998254382490639
 33
6.3801742529570067
  0
POLYLINE
  5
151ADC
  8
PULSADOR
 66
     1
 10
0.0
 20
0.0
 30
0.0
 70
    16
 71
     2
 72
     7
  0
VERTEX
  5
151ADD
  8
PULSADOR
 10
1.1504363225800991
 20
20.998254382490639
 30
6.3848033880888426
 70
    64
  0
VERTEX
  5
151ADE
  8
PULSADOR
 10
1.1632918353949371
 20
20.998254382490639
 30
6.3866005512409609
 70
    64
  0
VERTEX
  5
151ADF
  8
PULSADOR
 10
1.17525151419301
 20
20.998254382490639
 30
6.391646350303021
 70
    64
  0
VERTEX
  5
151AE0
  8
PULSADOR
 10
1.1855093009044451
 20
20.998254382490639
 30
6.3996007086624651
 70
    64
  0
VERTEX
  5
151AE1
  8
PULSADOR
 10
1.193373841530746
 20
20.998254382490639
 30
6.4099275187151878
 70
    64
  0
VERTEX
  5
151AE2
  8
PULSADOR
 10
1.1983150820006689
 20
20.998254382490639
 30
6.421930774429625
 70
    64
  0
VERTEX
  5
151AE3
  8
PULSADOR
 10
1.199999992738485
 20
20.998254382490639
 30
6.4348014807402114
 70
    64
  0
VERTEX
  5
151AE4
  8
PULSADOR
 10
1.149999992738485
 20
15.69480150926065
 30
6.3848014807402071
 70
    64
  0
VERTEX
  5
151AE5
  8
PULSADOR
 10
1.1629409449936119
 20
15.69480150926065
 30
6.386505189425753
 70
    64
  0
VERTEX
  5
151AE6
  8
PULSADOR
 10
1.174999992738486
 20
15.69480150926065
 30
6.3915002105509853
 70
    64
  0
VERTEX
  5
151AE7
  8
PULSADOR
 10
1.185355331797814
 20
15.69480150926065
 30
6.3994461416808797
 70
    64
  0
VERTEX
  5
151AE8
  8
PULSADOR
 10
1.193301262927708
 20
15.69480150926065
 30
6.4098014807402066
 70
    64
  0
VERTEX
  5
151AE9
  8
PULSADOR
 10
1.198296284052939
 20
15.69480150926065
 30
6.421860528485082
 70
    64
  0
VERTEX
  5
151AEA
  8
PULSADOR
 10
1.1999999927384859
 20
15.69480150926065
 30
6.434801480740207
 70
    64
  0
SEQEND
  5
151AEB
  8
PULSADOR
  0
POLYLINE
  5
151AEC
  8
PULSADOR
 66
     1
 10
0.0
 20
0.0
 30
0.0
 70
    16
 71
     2
 72
     7
  0
VERTEX
  5
151AED
  8
PULSADOR
 10
1.1504363225800991
 20
20.998254382490639
 30
9.611705396145485
 70
    64
  0
VERTEX
  5
151AEE
  8
PULSADOR
 10
1.1632918353949371
 20
20.998254382490639
 30
9.6099082329933658
 70
    64
  0
VERTEX
  5
151AEF
  8
PULSADOR
 10
1.17525151419301
 20
20.998254382490639
 30
9.6048624339313058
 70
    64
  0
VERTEX
  5
151AF0
  8
PULSADOR
 10
1.1855093009044451
 20
20.998254382490639
 30
9.5969080755718608
 70
    64
  0
VERTEX
  5
151AF1
  8
PULSADOR
 10
1.193373841530746
 20
20.998254382490639
 30
9.5865812655191398
 70
    64
  0
VERTEX
  5
151AF2
  8
PULSADOR
 10
1.1983150820006689
 20
20.998254382490639
 30
9.5745780098047035
 70
    64
  0
VERTEX
  5
151AF3
  8
PULSADOR
 10
1.199999992738485
 20
20.998254382490639
 30
9.5617073034941171
 70
    64
  0
VERTEX
  5
151AF4
  8
PULSADOR
 10
1.149999992738485
 20
15.69480150926065
 30
9.6117073034941178
 70
    64
  0
VERTEX
  5
151AF5
  8
PULSADOR
 10
1.1629409449936119
 20
15.69480150926065
 30
9.6100035948085711
 70
    64
  0
VERTEX
  5
151AF6
  8
PULSADOR
 10
1.174999992738486
 20
15.69480150926065
 30
9.6050085736833388
 70
    64
  0
VERTEX
  5
151AF7
  8
PULSADOR
 10
1.185355331797814
 20
15.69480150926065
 30
9.5970626425534427
 70
    64
  0
VERTEX
  5
151AF8
  8
PULSADOR
 10
1.193301262927708
 20
15.69480150926065
 30
9.5867073034941157
 70
    64
  0
VERTEX
  5
151AF9
  8
PULSADOR
 10
1.198296284052939
 20
15.69480150926065
 30
9.5746482557492421
 70
    64
  0
VERTEX
  5
151AFA
  8
PULSADOR
 10
1.1999999927384859
 20
15.69480150926065
 30
9.5617073034941171
 70
    64
  0
SEQEND
  5
151AFB
  8
PULSADOR
  0
3DFACE
  5
151AFC
  8
PULSADOR
 10
0.2499999927384862
 20
15.68694342362833
 30
9.6195634817778064
 11
1.149999992738485
 21
15.69480150926065
 31
9.6117073034941178
 12
1.1504363225800991
 22
20.998254382490639
 32
9.611705396145485
 13
0.619999997506858
 23
20.998254382490639
 33
9.6163345312773192
  0
3DFACE
  5
151AFD
  8
PULSADOR
 10
1.1999999927384859
 20
15.69480150926065
 30
6.434801480740207
 11
1.1999999927384859
 21
15.69480150926065
 31
9.5617073034941171
 12
1.199999992738485
 22
20.998254382490639
 32
9.5617073034941171
 13
1.199999992738485
 23
20.998254382490639
 33
6.4348014807402114
  0
POINT
  5
151AFE
  8
0
 62
     1
 10
0.0
 20
12.49825438249063
 30
7.998254392117162
  0
POLYLINE
  5
151CBA
  8
LOGO_ROCA
 66
     1
 10
0.0
 20
0.0
 30
0.0
 70
    16
 71
     2
 72
    13
  0
VERTEX
  5
151CBB
  8
LOGO_ROCA
 10
0.8014363195998674
 20
12.736482582741219
 30
15.0300738965989
 70
    64
  0
VERTEX
  5
151CBC
  8
LOGO_ROCA
 10
0.8014363195998674
 20
12.66802112581931
 30
15.017680488711431
 70
    64
  0
VERTEX
  5
151CBD
  8
LOGO_ROCA
 10
0.8014363195998674
 20
12.598471486587449
 30
15.01583242874143
 70
    64
  0
VERTEX
  5
151CBE
  8
LOGO_ROCA
 10
0.8014363195998674
 20
12.529302665040481
 30
15.0236680356023
 70
    64
  0
VERTEX
  5
151CBF
  8
LOGO_ROCA
 10
0.8014363195998674
 20
12.46051759756941
 30
15.03454566640176
 70
    64
  0
VERTEX
  5
151CC0
  8
LOGO_ROCA
 10
0.8014363195998674
 20
12.3920268692926
 30
15.04714441629678
 70
    64
  0
VERTEX
  5
151CC1
  8
LOGO_ROCA
 10
0.8014363195998674
 20
12.32359447666685
 30
15.060030772403641
 70
    64
  0
VERTEX
  5
151CC2
  8
LOGO_ROCA
 10
0.8014363195998674
 20
12.25450649567353
 30
15.068693548087939
 70
    64
  0
VERTEX
  5
151CC3
  8
LOGO_ROCA
 10
0.8014363195998674
 20
12.184996889189909
 30
15.072768766705501
 70
    64
  0
VERTEX
  5
151CC4
  8
LOGO_ROCA
 10
0.8014363195998674
 20
12.115369942456301
 30
15.072238588580101
 70
    64
  0
VERTEX
  5
151CC5
  8
LOGO_ROCA
 10
0.8014363195998674
 20
12.045930454381709
 30
15.067105334619409
 70
    64
  0
VERTEX
  5
151CC6
  8
LOGO_ROCA
 10
0.8014363195998674
 20
11.976982403256081
 30
15.057391476154971
 70
    64
  0
VERTEX
  5
151CC7
  8
LOGO_ROCA
 10
0.8014363195998674
 20
11.90882761605512
 30
15.0431395365718
 70
    64
  0
VERTEX
  5
151CC8
  8
LOGO_ROCA
 10
0.8014363195998674
 20
12.578944523317761
 30
14.92248646316599
 70
    64
  0
VERTEX
  5
151CC9
  8
LOGO_ROCA
 10
0.8014363195998674
 20
12.52263970378999
 30
14.926157207088361
 70
    64
  0
VERTEX
  5
151CCA
  8
LOGO_ROCA
 10
0.8014363195998674
 20
12.46683200276501
 30
14.93447631577274
 70
    64
  0
VERTEX
  5
151CCB
  8
LOGO_ROCA
 10
0.8014363195998674
 20
12.41185253995557
 30
14.94718763090334
 70
    64
  0
VERTEX
  5
151CCC
  8
LOGO_ROCA
 10
0.8014363195998674
 20
12.35670233372422
 30
14.959154647154079
 70
    64
  0
VERTEX
  5
151CCD
  8
LOGO_ROCA
 10
0.8014363195998674
 20
12.300986236745141
 30
14.96812522476786
 70
    64
  0
VERTEX
  5
151CCE
  8
LOGO_ROCA
 10
0.8014363195998674
 20
12.244866929403109
 30
14.974073171367699
 70
    64
  0
VERTEX
  5
151CCF
  8
LOGO_ROCA
 10
0.8014363195998674
 20
12.188508438788009
 30
14.97698583336696
 70
    64
  0
VERTEX
  5
151CD0
  8
LOGO_ROCA
 10
0.8014363195998674
 20
12.132074814486741
 30
14.976872286449399
 70
    64
  0
VERTEX
  5
151CD1
  8
LOGO_ROCA
 10
0.8014363195998674
 20
12.07572837526704
 30
14.97373451145141
 70
    64
  0
VERTEX
  5
151CD2
  8
LOGO_ROCA
 10
0.8014363195998674
 20
12.019631070292689
 30
14.967581526867169
 70
    64
  0
VERTEX
  5
151CD3
  8
LOGO_ROCA
 10
0.8014363195998674
 20
11.963944132673699
 30
14.95843101741154
 70
    64
  0
VERTEX
  5
151CD4
  8
LOGO_ROCA
 10
0.8014363195998674
 20
11.90882761605512
 30
14.94630928319107
 70
    64
  0
SEQEND
  5
151CD5
  8
LOGO_ROCA
  0
POLYLINE
  5
151CD6
  8
LOGO_ROCA
 66
     1
 10
0.0
 20
0.0
 30
0.0
 70
    16
 71
     2
 72
     4
  0
VERTEX
  5
151CD7
  8
LOGO_ROCA
 10
0.8014363195998674
 20
12.736482582741219
 30
15.0300738965989
 70
    64
  0
VERTEX
  5
151CD8
  8
LOGO_ROCA
 10
0.8014363195998674
 20
12.738978352475989
 30
15.028862117372119
 70
    64
  0
VERTEX
  5
151CD9
  8
LOGO_ROCA
 10
0.8014363195998674
 20
12.73965142139113
 30
15.02617060224142
 70
    64
  0
VERTEX
  5
151CDA
  8
LOGO_ROCA
 10
0.8014363195998674
 20
12.738019819031569
 30
15.023926688427631
 70
    64
  0
VERTEX
  5
151CDB
  8
LOGO_ROCA
 10
0.8014363195998674
 20
12.578944523317761
 30
14.92248646316599
 70
    64
  0
VERTEX
  5
151CDC
  8
LOGO_ROCA
 10
0.8014363195998674
 20
12.63318298983506
 30
14.95437152534674
 70
    64
  0
VERTEX
  5
151CDD
  8
LOGO_ROCA
 10
0.8014363195998674
 20
12.68623128276062
 30
14.988199724502181
 70
    64
  0
VERTEX
  5
151CDE
  8
LOGO_ROCA
 10
0.8014363195998674
 20
12.738019819031569
 30
15.023926688427631
 70
    64
  0
SEQEND
  5
151CDF
  8
LOGO_ROCA
  0
3DFACE
  5
151CE0
  8
LOGO_ROCA
 10
0.8014363195998674
 20
12.831006113191361
 30
15.056203439554549
 11
0.8014363195998674
 21
13.08768114892615
 31
15.056203439554549
 12
0.8014363195998674
 22
13.08768114892615
 32
14.949383755771761
 13
0.8014363195998674
 23
12.75262095830467
 33
14.949383755771761
  0
POLYLINE
  5
151CE1
  8
LOGO_ROCA
 66
     1
 10
0.0
 20
0.0
 30
0.0
 70
    16
 71
     2
 72
     4
  0
VERTEX
  5
151CE2
  8
LOGO_ROCA
 10
0.8014363195998674
 20
12.831006113191361
 30
15.056203439554549
 70
    64
  0
VERTEX
  5
151CE3
  8
LOGO_ROCA
 10
0.8014363195998674
 20
12.824333619772601
 30
15.05535187156886
 70
    64
  0
VERTEX
  5
151CE4
  8
LOGO_ROCA
 10
0.8014363195998674
 20
12.8184283782723
 30
15.05213077559381
 70
    64
  0
VERTEX
  5
151CE5
  8
LOGO_ROCA
 10
0.8014363195998674
 20
12.814099987977791
 30
15.0469817588026
 70
    64
  0
VERTEX
  5
151CE6
  8
LOGO_ROCA
 10
0.8014363195998674
 20
12.75262095830467
 30
14.949383755771761
 70
    64
  0
VERTEX
  5
151CE7
  8
LOGO_ROCA
 10
0.8014363195998674
 20
12.773113968195711
 30
14.9819164234487
 70
    64
  0
VERTEX
  5
151CE8
  8
LOGO_ROCA
 10
0.8014363195998674
 20
12.79360697808675
 30
15.01444909112565
 70
    64
  0
VERTEX
  5
151CE9
  8
LOGO_ROCA
 10
0.8014363195998674
 20
12.814099987977791
 30
15.0469817588026
 70
    64
  0
SEQEND
  5
151CEA
  8
LOGO_ROCA
  0
POLYLINE
  5
151CEB
  8
LOGO_ROCA
 66
     1
 10
0.0
 20
0.0
 30
0.0
 70
    16
 71
     2
 72
    21
  0
VERTEX
  5
151CEC
  8
LOGO_ROCA
 10
0.8014363195998674
 20
12.3845197408865
 30
15.312876738299201
 70
    64
  0
VERTEX
  5
151CED
  8
LOGO_ROCA
 10
0.8014363195998674
 20
12.37353330721435
 30
15.31224096005738
 70
    64
  0
VERTEX
  5
151CEE
  8
LOGO_ROCA
 10
0.8014363195998674
 20
12.36290983457662
 30
15.309369067315719
 70
    64
  0
VERTEX
  5
151CEF
  8
LOGO_ROCA
 10
0.8014363195998674
 20
12.353099500048479
 30
15.30438275853559
 70
    64
  0
VERTEX
  5
151CF0
  8
LOGO_ROCA
 10
0.8014363195998674
 20
12.344524583176691
 30
15.297486675759419
 70
    64
  0
VERTEX
  5
151CF1
  8
LOGO_ROCA
 10
0.8014363195998674
 20
12.33842517106358
 30
15.28837844546721
 70
    64
  0
VERTEX
  5
151CF2
  8
LOGO_ROCA
 10
0.8014363195998674
 20
12.33592084713624
 30
15.27769286620026
 70
    64
  0
VERTEX
  5
151CF3
  8
LOGO_ROCA
 10
0.8014363195998674
 20
12.33465718593429
 30
15.266741688951919
 70
    64
  0
VERTEX
  5
151CF4
  8
LOGO_ROCA
 10
0.8014363195998674
 20
12.33375359715528
 30
15.255754940111791
 70
    64
  0
VERTEX
  5
151CF5
  8
LOGO_ROCA
 10
0.8014363195998674
 20
12.333211054224121
 30
15.244744455566339
 70
    64
  0
VERTEX
  5
151CF6
  8
LOGO_ROCA
 10
0.8014363195998674
 20
12.33303014161543
 30
15.23372209677226
 70
    64
  0
VERTEX
  5
151CF7
  8
LOGO_ROCA
 10
0.8014363195998674
 20
12.333211054224121
 30
15.222699737978161
 70
    64
  0
VERTEX
  5
151CF8
  8
LOGO_ROCA
 10
0.8014363195998674
 20
12.33375359715528
 30
15.211689253432731
 70
    64
  0
VERTEX
  5
151CF9
  8
LOGO_ROCA
 10
0.8014363195998674
 20
12.33465718593429
 30
15.2007025045926
 70
    64
  0
VERTEX
  5
151CFA
  8
LOGO_ROCA
 10
0.8014363195998674
 20
12.33592084713624
 30
15.18975132734427
 70
    64
  0
VERTEX
  5
151CFB
  8
LOGO_ROCA
 10
0.8014363195998674
 20
12.33842517106358
 30
15.17906574807729
 70
    64
  0
VERTEX
  5
151CFC
  8
LOGO_ROCA
 10
0.8014363195998674
 20
12.344524583176691
 30
15.16995751778512
 70
    64
  0
VERTEX
  5
151CFD
  8
LOGO_ROCA
 10
0.8014363195998674
 20
12.353099500048479
 30
15.163061435008929
 70
    64
  0
VERTEX
  5
151CFE
  8
LOGO_ROCA
 10
0.8014363195998674
 20
12.36290983457662
 30
15.1580751262288
 70
    64
  0
VERTEX
  5
151CFF
  8
LOGO_ROCA
 10
0.8014363195998674
 20
12.37353330721435
 30
15.15520323348713
 70
    64
  0
VERTEX
  5
151D00
  8
LOGO_ROCA
 10
0.8014363195998674
 20
12.3845197408865
 30
15.15456745524533
 70
    64
  0
VERTEX
  5
151D01
  8
LOGO_ROCA
 10
0.8014363195998674
 20
12.3845197408865
 30
15.351300697597351
 70
    64
  0
VERTEX
  5
151D02
  8
LOGO_ROCA
 10
0.8014363195998674
 20
12.363544151131469
 30
15.350184842486451
 70
    64
  0
VERTEX
  5
151D03
  8
LOGO_ROCA
 10
0.8014363195998674
 20
12.342699378757761
 30
15.347593324999069
 70
    64
  0
VERTEX
  5
151D04
  8
LOGO_ROCA
 10
0.8014363195998674
 20
12.322089108586489
 30
15.343539035706639
 70
    64
  0
VERTEX
  5
151D05
  8
LOGO_ROCA
 10
0.8014363195998674
 20
12.302175288001839
 30
15.33696431575115
 70
    64
  0
VERTEX
  5
151D06
  8
LOGO_ROCA
 10
0.8014363195998674
 20
12.284134955119519
 30
15.326277205428401
 70
    64
  0
VERTEX
  5
151D07
  8
LOGO_ROCA
 10
0.8014363195998674
 20
12.26882421603149
 30
15.311950684352629
 70
    64
  0
VERTEX
  5
151D08
  8
LOGO_ROCA
 10
0.8014363195998674
 20
12.256963775889499
 30
15.29465912869113
 70
    64
  0
VERTEX
  5
151D09
  8
LOGO_ROCA
 10
0.8014363195998674
 20
12.249073901612491
 30
15.275228217647779
 70
    64
  0
VERTEX
  5
151D0A
  8
LOGO_ROCA
 10
0.8014363195998674
 20
12.24476518409082
 30
15.25468948950814
 70
    64
  0
VERTEX
  5
151D0B
  8
LOGO_ROCA
 10
0.8014363195998674
 20
12.24388606968645
 30
15.23372209677226
 70
    64
  0
VERTEX
  5
151D0C
  8
LOGO_ROCA
 10
0.8014363195998674
 20
12.24476518409082
 30
15.212754704036399
 70
    64
  0
VERTEX
  5
151D0D
  8
LOGO_ROCA
 10
0.8014363195998674
 20
12.249073901612491
 30
15.192215975896749
 70
    64
  0
VERTEX
  5
151D0E
  8
LOGO_ROCA
 10
0.8014363195998674
 20
12.256963775889499
 30
15.1727850648534
 70
    64
  0
VERTEX
  5
151D0F
  8
LOGO_ROCA
 10
0.8014363195998674
 20
12.26882421603149
 30
15.15549350919191
 70
    64
  0
VERTEX
  5
151D10
  8
LOGO_ROCA
 10
0.8014363195998674
 20
12.284134955119519
 30
15.141166988116121
 70
    64
  0
VERTEX
  5
151D11
  8
LOGO_ROCA
 10
0.8014363195998674
 20
12.302175288001839
 30
15.13047987779337
 70
    64
  0
VERTEX
  5
151D12
  8
LOGO_ROCA
 10
0.8014363195998674
 20
12.322089108586489
 30
15.12390515783787
 70
    64
  0
VERTEX
  5
151D13
  8
LOGO_ROCA
 10
0.8014363195998674
 20
12.342699378757761
 30
15.11985086854545
 70
    64
  0
VERTEX
  5
151D14
  8
LOGO_ROCA
 10
0.8014363195998674
 20
12.363544151131469
 30
15.117259351058079
 70
    64
  0
VERTEX
  5
151D15
  8
LOGO_ROCA
 10
0.8014363195998674
 20
12.3845197408865
 30
15.11614349594716
 70
    64
  0
SEQEND
  5
151D16
  8
LOGO_ROCA
  0
POLYLINE
  5
151D17
  8
LOGO_ROCA
 66
     1
 10
0.0
 20
0.0
 30
0.0
 70
    16
 71
     2
 72
    21
  0
VERTEX
  5
151D18
  8
LOGO_ROCA
 10
0.8014363195998674
 20
12.3845197408865
 30
15.312876738299201
 70
    64
  0
VERTEX
  5
151D19
  8
LOGO_ROCA
 10
0.8014363195998674
 20
12.39550617455863
 30
15.31224096005738
 70
    64
  0
VERTEX
  5
151D1A
  8
LOGO_ROCA
 10
0.8014363195998674
 20
12.40612964719638
 30
15.309369067315719
 70
    64
  0
VERTEX
  5
151D1B
  8
LOGO_ROCA
 10
0.8014363195998674
 20
12.41593998172452
 30
15.30438275853559
 70
    64
  0
VERTEX
  5
151D1C
  8
LOGO_ROCA
 10
0.8014363195998674
 20
12.4245148985963
 30
15.297486675759419
 70
    64
  0
VERTEX
  5
151D1D
  8
LOGO_ROCA
 10
0.8014363195998674
 20
12.430614310709419
 30
15.28837844546721
 70
    64
  0
VERTEX
  5
151D1E
  8
LOGO_ROCA
 10
0.8014363195998674
 20
12.43311863463677
 30
15.27769286620026
 70
    64
  0
VERTEX
  5
151D1F
  8
LOGO_ROCA
 10
0.8014363195998674
 20
12.43438229583872
 30
15.266741688951919
 70
    64
  0
VERTEX
  5
151D20
  8
LOGO_ROCA
 10
0.8014363195998674
 20
12.435285884617709
 30
15.255754940111791
 70
    64
  0
VERTEX
  5
151D21
  8
LOGO_ROCA
 10
0.8014363195998674
 20
12.4358284275489
 30
15.244744455566339
 70
    64
  0
VERTEX
  5
151D22
  8
LOGO_ROCA
 10
0.8014363195998674
 20
12.436009340157581
 30
15.23372209677226
 70
    64
  0
VERTEX
  5
151D23
  8
LOGO_ROCA
 10
0.8014363195998674
 20
12.4358284275489
 30
15.222699737978161
 70
    64
  0
VERTEX
  5
151D24
  8
LOGO_ROCA
 10
0.8014363195998674
 20
12.435285884617709
 30
15.211689253432731
 70
    64
  0
VERTEX
  5
151D25
  8
LOGO_ROCA
 10
0.8014363195998674
 20
12.43438229583872
 30
15.2007025045926
 70
    64
  0
VERTEX
  5
151D26
  8
LOGO_ROCA
 10
0.8014363195998674
 20
12.43311863463677
 30
15.18975132734427
 70
    64
  0
VERTEX
  5
151D27
  8
LOGO_ROCA
 10
0.8014363195998674
 20
12.430614310709419
 30
15.17906574807729
 70
    64
  0
VERTEX
  5
151D28
  8
LOGO_ROCA
 10
0.8014363195998674
 20
12.4245148985963
 30
15.16995751778512
 70
    64
  0
VERTEX
  5
151D29
  8
LOGO_ROCA
 10
0.8014363195998674
 20
12.41593998172452
 30
15.163061435008929
 70
    64
  0
VERTEX
  5
151D2A
  8
LOGO_ROCA
 10
0.8014363195998674
 20
12.40612964719638
 30
15.1580751262288
 70
    64
  0
VERTEX
  5
151D2B
  8
LOGO_ROCA
 10
0.8014363195998674
 20
12.39550617455863
 30
15.15520323348713
 70
    64
  0
VERTEX
  5
151D2C
  8
LOGO_ROCA
 10
0.8014363195998674
 20
12.3845197408865
 30
15.15456745524533
 70
    64
  0
VERTEX
  5
151D2D
  8
LOGO_ROCA
 10
0.8014363195998674
 20
12.3845197408865
 30
15.351300697597351
 70
    64
  0
VERTEX
  5
151D2E
  8
LOGO_ROCA
 10
0.8014363195998674
 20
12.405495330641511
 30
15.350184842486451
 70
    64
  0
VERTEX
  5
151D2F
  8
LOGO_ROCA
 10
0.8014363195998674
 20
12.42634010301523
 30
15.347593324999069
 70
    64
  0
VERTEX
  5
151D30
  8
LOGO_ROCA
 10
0.8014363195998674
 20
12.44695037318651
 30
15.343539035706639
 70
    64
  0
VERTEX
  5
151D31
  8
LOGO_ROCA
 10
0.8014363195998674
 20
12.46686419377116
 30
15.33696431575115
 70
    64
  0
VERTEX
  5
151D32
  8
LOGO_ROCA
 10
0.8014363195998674
 20
12.48490452665351
 30
15.326277205428401
 70
    64
  0
VERTEX
  5
151D33
  8
LOGO_ROCA
 10
0.8014363195998674
 20
12.50021526574151
 30
15.311950684352629
 70
    64
  0
VERTEX
  5
151D34
  8
LOGO_ROCA
 10
0.8014363195998674
 20
12.51207570588349
 30
15.29465912869113
 70
    64
  0
VERTEX
  5
151D35
  8
LOGO_ROCA
 10
0.8014363195998674
 20
12.519965580160511
 30
15.275228217647779
 70
    64
  0
VERTEX
  5
151D36
  8
LOGO_ROCA
 10
0.8014363195998674
 20
12.524274297682179
 30
15.25468948950814
 70
    64
  0
VERTEX
  5
151D37
  8
LOGO_ROCA
 10
0.8014363195998674
 20
12.525153412086549
 30
15.23372209677226
 70
    64
  0
VERTEX
  5
151D38
  8
LOGO_ROCA
 10
0.8014363195998674
 20
12.524274297682179
 30
15.212754704036399
 70
    64
  0
VERTEX
  5
151D39
  8
LOGO_ROCA
 10
0.8014363195998674
 20
12.519965580160511
 30
15.192215975896749
 70
    64
  0
VERTEX
  5
151D3A
  8
LOGO_ROCA
 10
0.8014363195998674
 20
12.51207570588349
 30
15.1727850648534
 70
    64
  0
VERTEX
  5
151D3B
  8
LOGO_ROCA
 10
0.8014363195998674
 20
12.50021526574151
 30
15.15549350919191
 70
    64
  0
VERTEX
  5
151D3C
  8
LOGO_ROCA
 10
0.8014363195998674
 20
12.48490452665351
 30
15.141166988116121
 70
    64
  0
VERTEX
  5
151D3D
  8
LOGO_ROCA
 10
0.8014363195998674
 20
12.46686419377116
 30
15.13047987779337
 70
    64
  0
VERTEX
  5
151D3E
  8
LOGO_ROCA
 10
0.8014363195998674
 20
12.44695037318651
 30
15.12390515783787
 70
    64
  0
VERTEX
  5
151D3F
  8
LOGO_ROCA
 10
0.8014363195998674
 20
12.42634010301523
 30
15.11985086854545
 70
    64
  0
VERTEX
  5
151D40
  8
LOGO_ROCA
 10
0.8014363195998674
 20
12.405495330641511
 30
15.117259351058079
 70
    64
  0
VERTEX
  5
151D41
  8
LOGO_ROCA
 10
0.8014363195998674
 20
12.3845197408865
 30
15.11614349594716
 70
    64
  0
SEQEND
  5
151D42
  8
LOGO_ROCA
  0
POLYLINE
  5
151D43
  8
LOGO_ROCA
 66
     1
 10
0.0
 20
0.0
 30
0.0
 70
    16
 71
     2
 72
    17
  0
VERTEX
  5
151D44
  8
LOGO_ROCA
 10
0.8014363195998674
 20
12.084041287332401
 30
15.43122308877439
 70
    64
  0
VERTEX
  5
151D45
  8
LOGO_ROCA
 10
0.8014363195998674
 20
12.101511399220749
 30
15.43068080316606
 70
    64
  0
VERTEX
  5
151D46
  8
LOGO_ROCA
 10
0.8014363195998674
 20
12.118858183799681
 30
15.428538853622779
 70
    64
  0
VERTEX
  5
151D47
  8
LOGO_ROCA
 10
0.8014363195998674
 20
12.135935477020199
 30
15.42481528821661
 70
    64
  0
VERTEX
  5
151D48
  8
LOGO_ROCA
 10
0.8014363195998674
 20
12.15259938556818
 30
15.419541481718699
 70
    64
  0
VERTEX
  5
151D49
  8
LOGO_ROCA
 10
0.8014363195998674
 20
12.16856360482231
 30
15.412506585280839
 70
    64
  0
VERTEX
  5
151D4A
  8
LOGO_ROCA
 10
0.8014363195998674
 20
12.18172587720704
 30
15.40104719040607
 70
    64
  0
VERTEX
  5
151D4B
  8
LOGO_ROCA
 10
0.8014363195998674
 20
12.192172903043369
 30
15.38706782001967
 70
    64
  0
VERTEX
  5
151D4C
  8
LOGO_ROCA
 10
0.8014363195998674
 20
12.199433965928399
 30
15.371198348982359
 70
    64
  0
VERTEX
  5
151D4D
  8
LOGO_ROCA
 10
0.8014363195998674
 20
12.203181900843481
 30
15.35415381528097
 70
    64
  0
VERTEX
  5
151D4E
  8
LOGO_ROCA
 10
0.8014363195998674
 20
12.203247835377519
 30
15.33670220223626
 70
    64
  0
VERTEX
  5
151D4F
  8
LOGO_ROCA
 10
0.8014363195998674
 20
12.199628798688201
 30
15.31962983512838
 70
    64
  0
VERTEX
  5
151D50
  8
LOGO_ROCA
 10
0.8014363195998674
 20
12.19248785536047
 30
15.30370595138052
 70
    64
  0
VERTEX
  5
151D51
  8
LOGO_ROCA
 10
0.8014363195998674
 20
12.182146758131379
 30
15.28964804067785
 70
    64
  0
VERTEX
  5
151D52
  8
LOGO_ROCA
 10
0.8014363195998674
 20
12.1692774825587
 30
15.27784222599343
 70
    64
  0
VERTEX
  5
151D53
  8
LOGO_ROCA
 10
0.8014363195998674
 20
12.15462693894173
 30
15.268335925537849
 70
    64
  0
VERTEX
  5
151D54
  8
LOGO_ROCA
 10
0.8014363195998674
 20
12.13860362219399
 30
15.26138887601828
 70
    64
  0
VERTEX
  5
151D55
  8
LOGO_ROCA
 10
0.8014363195998674
 20
12.05483900878618
 30
15.387419670955071
 70
    64
  0
VERTEX
  5
151D56
  8
LOGO_ROCA
 10
0.8014363195998674
 20
12.068156953602241
 30
15.38670767966558
 70
    64
  0
VERTEX
  5
151D57
  8
LOGO_ROCA
 10
0.8014363195998674
 20
12.08121090300993
 30
15.38397473426156
 70
    64
  0
VERTEX
  5
151D58
  8
LOGO_ROCA
 10
0.8014363195998674
 20
12.093422872701019
 30
15.378799328034811
 70
    64
  0
VERTEX
  5
151D59
  8
LOGO_ROCA
 10
0.8014363195998674
 20
12.10268114767387
 30
15.36926014926118
 70
    64
  0
VERTEX
  5
151D5A
  8
LOGO_ROCA
 10
0.8014363195998674
 20
12.108475576203251
 30
15.35729619568527
 70
    64
  0
VERTEX
  5
151D5B
  8
LOGO_ROCA
 10
0.8014363195998674
 20
12.11021994075027
 30
15.344117850589029
 70
    64
  0
VERTEX
  5
151D5C
  8
LOGO_ROCA
 10
0.8014363195998674
 20
12.107737765397379
 30
15.33105835623947
 70
    64
  0
VERTEX
  5
151D5D
  8
LOGO_ROCA
 10
0.8014363195998674
 20
12.10128016977078
 30
15.319438930871939
 70
    64
  0
VERTEX
  5
151D5E
  8
LOGO_ROCA
 10
0.8014363195998674
 20
12.091408657496491
 30
15.310476837136701
 70
    64
  0
VERTEX
  5
151D5F
  8
LOGO_ROCA
 10
0.8014363195998674
 20
12.080331568633451
 30
15.30304591310431
 70
    64
  0
VERTEX
  5
151D60
  8
LOGO_ROCA
 10
0.8014363195998674
 20
12.0683115398935
 30
15.297263228715069
 70
    64
  0
VERTEX
  5
151D61
  8
LOGO_ROCA
 10
0.8014363195998674
 20
12.05559217539977
 30
15.293245978843521
 70
    64
  0
VERTEX
  5
151D62
  8
LOGO_ROCA
 10
0.8014363195998674
 20
12.04246288011378
 30
15.29085028832854
 70
    64
  0
VERTEX
  5
151D63
  8
LOGO_ROCA
 10
0.8014363195998674
 20
12.029222884081429
 30
15.28914880717471
 70
    64
  0
VERTEX
  5
151D64
  8
LOGO_ROCA
 10
0.8014363195998674
 20
12.015920397936091
 30
15.288036873990659
 70
    64
  0
VERTEX
  5
151D65
  8
LOGO_ROCA
 10
0.8014363195998674
 20
12.00258165986501
 30
15.287516681983799
 70
    64
  0
SEQEND
  5
151D66
  8
LOGO_ROCA
  0
3DFACE
  5
151D67
  8
LOGO_ROCA
 10
0.8014363195998674
 20
12.084041287332401
 30
15.43122308877439
 11
0.8014363195998674
 21
12.05483900878618
 31
15.387419670955071
 12
0.8014363195998674
 22
12.00258165986501
 32
15.387419670955071
 13
0.8014363195998674
 23
11.90882761605512
 33
15.43122308877439
  0
3DFACE
  5
151D68
  8
LOGO_ROCA
 10
0.8014363195998674
 20
11.90882761605512
 30
15.43122308877439
 11
0.8014363195998674
 21
12.00258165986501
 31
15.387419670955071
 12
0.8014363195998674
 22
12.00258165986501
 32
15.12382967739892
 13
0.8014363195998674
 23
11.90882761605512
 33
15.12382967739892
  0
3DFACE
  5
151D69
  8
LOGO_ROCA
 10
0.8014363195998674
 20
12.00258165986501
 30
15.287516681983799
 11
0.8014363195998674
 21
12.00258165986501
 31
15.243713264164469
 12
0.8014363195998674
 22
12.044849578384129
 32
15.245250500454819
 13
0.8014363195998674
 23
12.00258165986501
 33
15.287516681983799
  0
3DFACE
  5
151D6A
  8
LOGO_ROCA
 10
0.8014363195998674
 20
12.00258165986501
 30
15.287516681983799
 11
0.8014363195998674
 21
12.044849578384129
 31
15.245250500454819
 12
0.8014363195998674
 22
12.13860362219399
 32
15.26138887601828
 13
0.8014363195998674
 23
12.00258165986501
 33
15.287516681983799
  0
3DFACE
  5
151D6B
  8
LOGO_ROCA
 10
0.8014363195998674
 20
12.044849578384129
 30
15.245250500454819
 11
0.8014363195998674
 21
12.13860362219399
 31
15.26138887601828
 12
0.8014363195998674
 22
12.21698877708069
 32
15.12382967739892
 13
0.8014363195998674
 23
12.110170830288061
 33
15.12382967739892
  0
POLYLINE
  5
151D6C
  8
LOGO_ROCA
 66
     1
 10
0.0
 20
0.0
 30
0.0
 70
    16
 71
     2
 72
    25
  0
VERTEX
  5
151D6D
  8
LOGO_ROCA
 10
0.8014363195998674
 20
12.777981014620069
 30
15.29673836273574
 70
    64
  0
VERTEX
  5
151D6E
  8
LOGO_ROCA
 10
0.8014363195998674
 20
12.764590013269521
 30
15.299572973950131
 70
    64
  0
VERTEX
  5
151D6F
  8
LOGO_ROCA
 10
0.8014363195998674
 20
12.75106390514061
 30
15.3016701951575
 70
    64
  0
VERTEX
  5
151D70
  8
LOGO_ROCA
 10
0.8014363195998674
 20
12.73744326394087
 30
15.30302373541007
 70
    64
  0
VERTEX
  5
151D71
  8
LOGO_ROCA
 10
0.8014363195998674
 20
12.72376894694473
 30
15.30362953454909
 70
    64
  0
VERTEX
  5
151D72
  8
LOGO_ROCA
 10
0.8014363195998674
 20
12.71008705770191
 30
15.303384038749471
 70
    64
  0
VERTEX
  5
151D73
  8
LOGO_ROCA
 10
0.8014363195998674
 20
12.696722357553959
 30
15.30056968794862
 70
    64
  0
VERTEX
  5
151D74
  8
LOGO_ROCA
 10
0.8014363195998674
 20
12.68438362307157
 30
15.294713801009211
 70
    64
  0
VERTEX
  5
151D75
  8
LOGO_ROCA
 10
0.8014363195998674
 20
12.674047815729971
 30
15.28587798631024
 70
    64
  0
VERTEX
  5
151D76
  8
LOGO_ROCA
 10
0.8014363195998674
 20
12.66722992309198
 30
15.27403810340989
 70
    64
  0
VERTEX
  5
151D77
  8
LOGO_ROCA
 10
0.8014363195998674
 20
12.66312121712529
 30
15.261007945222209
 70
    64
  0
VERTEX
  5
151D78
  8
LOGO_ROCA
 10
0.8014363195998674
 20
12.66173939878284
 30
15.247404272094711
 70
    64
  0
VERTEX
  5
151D79
  8
LOGO_ROCA
 10
0.8014363195998674
 20
12.661353218320141
 30
15.23372209677226
 70
    64
  0
VERTEX
  5
151D7A
  8
LOGO_ROCA
 10
0.8014363195998674
 20
12.66173939878284
 30
15.220039921449811
 70
    64
  0
VERTEX
  5
151D7B
  8
LOGO_ROCA
 10
0.8014363195998674
 20
12.66312121712529
 30
15.206436248322319
 70
    64
  0
VERTEX
  5
151D7C
  8
LOGO_ROCA
 10
0.8014363195998674
 20
12.66722992309198
 30
15.193406090134641
 70
    64
  0
VERTEX
  5
151D7D
  8
LOGO_ROCA
 10
0.8014363195998674
 20
12.674047815729971
 30
15.18156620723428
 70
    64
  0
VERTEX
  5
151D7E
  8
LOGO_ROCA
 10
0.8014363195998674
 20
12.68438362307157
 30
15.172730392535311
 70
    64
  0
VERTEX
  5
151D7F
  8
LOGO_ROCA
 10
0.8014363195998674
 20
12.696722357553959
 30
15.166874505595899
 70
    64
  0
VERTEX
  5
151D80
  8
LOGO_ROCA
 10
0.8014363195998674
 20
12.71008705770191
 30
15.16406015479506
 70
    64
  0
VERTEX
  5
151D81
  8
LOGO_ROCA
 10
0.8014363195998674
 20
12.72376894694473
 30
15.163814658995429
 70
    64
  0
VERTEX
  5
151D82
  8
LOGO_ROCA
 10
0.8014363195998674
 20
12.73744326394087
 30
15.164420458134449
 70
    64
  0
VERTEX
  5
151D83
  8
LOGO_ROCA
 10
0.8014363195998674
 20
12.75106390514061
 30
15.16577399838701
 70
    64
  0
VERTEX
  5
151D84
  8
LOGO_ROCA
 10
0.8014363195998674
 20
12.764590013269521
 30
15.167871219594391
 70
    64
  0
VERTEX
  5
151D85
  8
LOGO_ROCA
 10
0.8014363195998674
 20
12.777981014620069
 30
15.170705830808791
 70
    64
  0
VERTEX
  5
151D86
  8
LOGO_ROCA
 10
0.8014363195998674
 20
12.79312434908387
 30
15.337860555102081
 70
    64
  0
VERTEX
  5
151D87
  8
LOGO_ROCA
 10
0.8014363195998674
 20
12.769819306684489
 30
15.34475369059626
 70
    64
  0
VERTEX
  5
151D88
  8
LOGO_ROCA
 10
0.8014363195998674
 20
12.74583015299921
 30
15.348870485495761
 70
    64
  0
VERTEX
  5
151D89
  8
LOGO_ROCA
 10
0.8014363195998674
 20
12.721584949227999
 30
15.351014684384261
 70
    64
  0
VERTEX
  5
151D8A
  8
LOGO_ROCA
 10
0.8014363195998674
 20
12.697260176291801
 30
15.35061546831766
 70
    64
  0
VERTEX
  5
151D8B
  8
LOGO_ROCA
 10
0.8014363195998674
 20
12.67307023640587
 30
15.34791837671813
 70
    64
  0
VERTEX
  5
151D8C
  8
LOGO_ROCA
 10
0.8014363195998674
 20
12.64918130883663
 30
15.34325504803868
 70
    64
  0
VERTEX
  5
151D8D
  8
LOGO_ROCA
 10
0.8014363195998674
 20
12.62635279472253
 30
15.33497570835423
 70
    64
  0
VERTEX
  5
151D8E
  8
LOGO_ROCA
 10
0.8014363195998674
 20
12.60630365415809
 30
15.32127675577051
 70
    64
  0
VERTEX
  5
151D8F
  8
LOGO_ROCA
 10
0.8014363195998674
 20
12.59030194424445
 30
15.30301273049945
 70
    64
  0
VERTEX
  5
151D90
  8
LOGO_ROCA
 10
0.8014363195998674
 20
12.57935780634029
 30
15.281336587281629
 70
    64
  0
VERTEX
  5
151D91
  8
LOGO_ROCA
 10
0.8014363195998674
 20
12.57348165090538
 30
15.25774795369718
 70
    64
  0
VERTEX
  5
151D92
  8
LOGO_ROCA
 10
0.8014363195998674
 20
12.5721726936452
 30
15.23347252371801
 70
    64
  0
VERTEX
  5
151D93
  8
LOGO_ROCA
 10
0.8014363195998674
 20
12.57355656423641
 30
15.20920235233171
 70
    64
  0
VERTEX
  5
151D94
  8
LOGO_ROCA
 10
0.8014363195998674
 20
12.57952636263399
 30
15.185637366510029
 70
    64
  0
VERTEX
  5
151D95
  8
LOGO_ROCA
 10
0.8014363195998674
 20
12.590582392532429
 30
15.164018080163141
 70
    64
  0
VERTEX
  5
151D96
  8
LOGO_ROCA
 10
0.8014363195998674
 20
12.606678290556481
 30
15.14583700742079
 70
    64
  0
VERTEX
  5
151D97
  8
LOGO_ROCA
 10
0.8014363195998674
 20
12.626797969526191
 30
15.13224186647196
 70
    64
  0
VERTEX
  5
151D98
  8
LOGO_ROCA
 10
0.8014363195998674
 20
12.6496673681815
 30
15.12407389161379
 70
    64
  0
VERTEX
  5
151D99
  8
LOGO_ROCA
 10
0.8014363195998674
 20
12.67356408373163
 30
15.1194506372733
 70
    64
  0
VERTEX
  5
151D9A
  8
LOGO_ROCA
 10
0.8014363195998674
 20
12.69775851329768
 30
15.11679412212087
 70
    64
  0
VERTEX
  5
151D9B
  8
LOGO_ROCA
 10
0.8014363195998674
 20
12.722083906628191
 30
15.11645356449557
 70
    64
  0
VERTEX
  5
151D9C
  8
LOGO_ROCA
 10
0.8014363195998674
 20
12.74632547993196
 30
15.118638425713
 70
    64
  0
VERTEX
  5
151D9D
  8
LOGO_ROCA
 10
0.8014363195998674
 20
12.77030769496703
 30
15.122795450706001
 70
    64
  0
VERTEX
  5
151D9E
  8
LOGO_ROCA
 10
0.8014363195998674
 20
12.79358333983348
 30
15.129780778344781
 70
    64
  0
SEQEND
  5
151D9F
  8
LOGO_ROCA
  0
POLYLINE
  5
151DA0
  8
LOGO_ROCA
 66
     1
 10
0.0
 20
0.0
 30
0.0
 70
    16
 71
     2
 72
    13
  0
VERTEX
  5
151DA1
  8
LOGO_ROCA
 10
0.8014363195998674
 20
12.874041781360569
 30
15.297507849376
 70
    64
  0
VERTEX
  5
151DA2
  8
LOGO_ROCA
 10
0.8014363195998674
 20
12.88693897162395
 30
15.300599946866891
 70
    64
  0
VERTEX
  5
151DA3
  8
LOGO_ROCA
 10
0.8014363195998674
 20
12.899952159720209
 30
15.303160321674181
 70
    64
  0
VERTEX
  5
151DA4
  8
LOGO_ROCA
 10
0.8014363195998674
 20
12.913059433564291
 30
15.305184662544489
 70
    64
  0
VERTEX
  5
151DA5
  8
LOGO_ROCA
 10
0.8014363195998674
 20
12.926238722646019
 30
15.306669560818181
 70
    64
  0
VERTEX
  5
151DA6
  8
LOGO_ROCA
 10
0.8014363195998674
 20
12.939467835193341
 30
15.307612516168859
 70
    64
  0
VERTEX
  5
151DA7
  8
LOGO_ROCA
 10
0.8014363195998674
 20
12.95272449553959
 30
15.308011940813611
 70
    64
  0
VERTEX
  5
151DA8
  8
LOGO_ROCA
 10
0.8014363195998674
 20
12.965980773719391
 30
15.307726378945141
 70
    64
  0
VERTEX
  5
151DA9
  8
LOGO_ROCA
 10
0.8014363195998674
 20
12.979098019748159
 30
15.305830460720239
 70
    64
  0
VERTEX
  5
151DAA
  8
LOGO_ROCA
 10
0.8014363195998674
 20
12.99121931320567
 30
15.30081522263945
 70
    64
  0
VERTEX
  5
151DAB
  8
LOGO_ROCA
 10
0.8014363195998674
 20
12.99842793337619
 30
15.28993159873402
 70
    64
  0
VERTEX
  5
151DAC
  8
LOGO_ROCA
 10
0.8014363195998674
 20
12.99921150636087
 30
15.276740592224529
 70
    64
  0
VERTEX
  5
151DAD
  8
LOGO_ROCA
 10
0.8014363195998674
 20
12.999304826647281
 30
15.26347731350123
 70
    64
  0
VERTEX
  5
151DAE
  8
LOGO_ROCA
 10
0.8014363195998674
 20
12.86020839173757
 30
15.337469044964511
 70
    64
  0
VERTEX
  5
151DAF
  8
LOGO_ROCA
 10
0.8014363195998674
 20
12.88265450547404
 30
15.342337089181351
 70
    64
  0
VERTEX
  5
151DB0
  8
LOGO_ROCA
 10
0.8014363195998674
 20
12.905300446405951
 30
15.34616948212531
 70
    64
  0
VERTEX
  5
151DB1
  8
LOGO_ROCA
 10
0.8014363195998674
 20
12.928098456287501
 30
15.34895814162555
 70
    64
  0
VERTEX
  5
151DB2
  8
LOGO_ROCA
 10
0.8014363195998674
 20
12.951000456173279
 30
15.350697186650811
 70
    64
  0
VERTEX
  5
151DB3
  8
LOGO_ROCA
 10
0.8014363195998674
 20
12.973958204506211
 30
15.35137385219876
 70
    64
  0
VERTEX
  5
151DB4
  8
LOGO_ROCA
 10
0.8014363195998674
 20
12.996881742835001
 30
15.350108948260409
 70
    64
  0
VERTEX
  5
151DB5
  8
LOGO_ROCA
 10
0.8014363195998674
 20
13.019528570215719
 30
15.34633935928127
 70
    64
  0
VERTEX
  5
151DB6
  8
LOGO_ROCA
 10
0.8014363195998674
 20
13.041570424033971
 30
15.33995302299294
 70
    64
  0
VERTEX
  5
151DB7
  8
LOGO_ROCA
 10
0.8014363195998674
 20
13.06113230301359
 30
15.328100861954701
 70
    64
  0
VERTEX
  5
151DB8
  8
LOGO_ROCA
 10
0.8014363195998674
 20
13.075978584544011
 30
15.310701759816689
 70
    64
  0
VERTEX
  5
151DB9
  8
LOGO_ROCA
 10
0.8014363195998674
 20
13.08460502107684
 30
15.289518619746479
 70
    64
  0
VERTEX
  5
151DBA
  8
LOGO_ROCA
 10
0.8014363195998674
 20
13.08768114892615
 30
15.26676833453943
 70
    64
  0
SEQEND
  5
151DBB
  8
LOGO_ROCA
  0
POLYLINE
  5
151DBC
  8
LOGO_ROCA
 66
     1
 10
0.0
 20
0.0
 30
0.0
 70
    16
 71
     2
 72
    25
  0
VERTEX
  5
151DBD
  8
LOGO_ROCA
 10
0.8014363195998674
 20
12.999304826647281
 30
15.231417110831821
 70
    64
  0
VERTEX
  5
151DBE
  8
LOGO_ROCA
 10
0.8014363195998674
 20
12.99051196526676
 30
15.231795560906789
 70
    64
  0
VERTEX
  5
151DBF
  8
LOGO_ROCA
 10
0.8014363195998674
 20
12.98171145623512
 30
15.231702413173879
 70
    64
  0
VERTEX
  5
151DC0
  8
LOGO_ROCA
 10
0.8014363195998674
 20
12.9729285751425
 30
15.231137935158969
 70
    64
  0
VERTEX
  5
151DC1
  8
LOGO_ROCA
 10
0.8014363195998674
 20
12.96418854695062
 30
15.230103748076781
 70
    64
  0
VERTEX
  5
151DC2
  8
LOGO_ROCA
 10
0.8014363195998674
 20
12.95551647354498
 30
15.228602822174709
 70
    64
  0
VERTEX
  5
151DC3
  8
LOGO_ROCA
 10
0.8014363195998674
 20
12.94693726164096
 30
15.22663946820202
 70
    64
  0
VERTEX
  5
151DC4
  8
LOGO_ROCA
 10
0.8014363195998674
 20
12.938507794243399
 30
15.224121657547631
 70
    64
  0
VERTEX
  5
151DC5
  8
LOGO_ROCA
 10
0.8014363195998674
 20
12.93068617523272
 30
15.22012085887186
 70
    64
  0
VERTEX
  5
151DC6
  8
LOGO_ROCA
 10
0.8014363195998674
 20
12.92388622882099
 30
15.214558049977949
 70
    64
  0
VERTEX
  5
151DC7
  8
LOGO_ROCA
 10
0.8014363195998674
 20
12.918501377202499
 30
15.207624462892859
 70
    64
  0
VERTEX
  5
151DC8
  8
LOGO_ROCA
 10
0.8014363195998674
 20
12.91506504358091
 30
15.199547812502979
 70
    64
  0
VERTEX
  5
151DC9
  8
LOGO_ROCA
 10
0.8014363195998674
 20
12.91382066996613
 30
15.19085918749173
 70
    64
  0
VERTEX
  5
151DCA
  8
LOGO_ROCA
 10
0.8014363195998674
 20
12.91485191167691
 30
15.18214269675215
 70
    64
  0
VERTEX
  5
151DCB
  8
LOGO_ROCA
 10
0.8014363195998674
 20
12.91808944158109
 30
15.17398432250241
 70
    64
  0
VERTEX
  5
151DCC
  8
LOGO_ROCA
 10
0.8014363195998674
 20
12.923315610740501
 30
15.16693252654699
 70
    64
  0
VERTEX
  5
151DCD
  8
LOGO_ROCA
 10
0.8014363195998674
 20
12.93017908026326
 30
15.161461378917
 70
    64
  0
VERTEX
  5
151DCE
  8
LOGO_ROCA
 10
0.8014363195998674
 20
12.93821844071122
 30
15.1579386876352
 70
    64
  0
VERTEX
  5
151DCF
  8
LOGO_ROCA
 10
0.8014363195998674
 20
12.94679175966994
 30
15.15595366133398
 70
    64
  0
VERTEX
  5
151DD0
  8
LOGO_ROCA
 10
0.8014363195998674
 20
12.955473497282981
 30
15.154511620888069
 70
    64
  0
VERTEX
  5
151DD1
  8
LOGO_ROCA
 10
0.8014363195998674
 20
12.96422712628582
 30
15.153602760111831
 70
    64
  0
VERTEX
  5
151DD2
  8
LOGO_ROCA
 10
0.8014363195998674
 20
12.97301993316583
 30
15.153230475542721
 70
    64
  0
VERTEX
  5
151DD3
  8
LOGO_ROCA
 10
0.8014363195998674
 20
12.981819057997329
 30
15.15339615845922
 70
    64
  0
VERTEX
  5
151DD4
  8
LOGO_ROCA
 10
0.8014363195998674
 20
12.990591617243661
 30
15.154099189681549
 70
    64
  0
VERTEX
  5
151DD5
  8
LOGO_ROCA
 10
0.8014363195998674
 20
12.999304826647281
 30
15.155336941885579
 70
    64
  0
VERTEX
  5
151DD6
  8
LOGO_ROCA
 10
0.8014363195998674
 20
12.999304826647281
 30
15.26347731350123
 70
    64
  0
VERTEX
  5
151DD7
  8
LOGO_ROCA
 10
0.8014363195998674
 20
12.978668358405249
 30
15.26359876658994
 70
    64
  0
VERTEX
  5
151DD8
  8
LOGO_ROCA
 10
0.8014363195998674
 20
12.95804542010349
 30
15.262841806776191
 70
    64
  0
VERTEX
  5
151DD9
  8
LOGO_ROCA
 10
0.8014363195998674
 20
12.93747338536388
 30
15.26120780584943
 70
    64
  0
VERTEX
  5
151DDA
  8
LOGO_ROCA
 10
0.8014363195998674
 20
12.91699799129025
 30
15.25864174424993
 70
    64
  0
VERTEX
  5
151DDB
  8
LOGO_ROCA
 10
0.8014363195998674
 20
12.89683108738584
 30
15.25429741430284
 70
    64
  0
VERTEX
  5
151DDC
  8
LOGO_ROCA
 10
0.8014363195998674
 20
12.87720828674974
 30
15.247931653470429
 70
    64
  0
VERTEX
  5
151DDD
  8
LOGO_ROCA
 10
0.8014363195998674
 20
12.858560370495759
 30
15.239211765862811
 70
    64
  0
VERTEX
  5
151DDE
  8
LOGO_ROCA
 10
0.8014363195998674
 20
12.8440071702054
 30
15.22471822784993
 70
    64
  0
VERTEX
  5
151DDF
  8
LOGO_ROCA
 10
0.8014363195998674
 20
12.835118276667099
 30
15.2062021306778
 70
    64
  0
VERTEX
  5
151DE0
  8
LOGO_ROCA
 10
0.8014363195998674
 20
12.83291067971706
 30
15.18578192503414
 70
    64
  0
VERTEX
  5
151DE1
  8
LOGO_ROCA
 10
0.8014363195998674
 20
12.83763695338501
 30
15.165793913126031
 70
    64
  0
VERTEX
  5
151DE2
  8
LOGO_ROCA
 10
0.8014363195998674
 20
12.84875635857188
 30
15.148524949314821
 70
    64
  0
VERTEX
  5
151DE3
  8
LOGO_ROCA
 10
0.8014363195998674
 20
12.86499670971148
 30
15.135950798143231
 70
    64
  0
VERTEX
  5
151DE4
  8
LOGO_ROCA
 10
0.8014363195998674
 20
12.88401813587765
 30
15.12797702888612
 70
    64
  0
VERTEX
  5
151DE5
  8
LOGO_ROCA
 10
0.8014363195998674
 20
12.9038098467
 30
15.1221650699473
 70
    64
  0
VERTEX
  5
151DE6
  8
LOGO_ROCA
 10
0.8014363195998674
 20
12.92413032093194
 30
15.118619789849401
 70
    64
  0
VERTEX
  5
151DE7
  8
LOGO_ROCA
 10
0.8014363195998674
 20
12.9447208346505
 30
15.11738632773462
 70
    64
  0
VERTEX
  5
151DE8
  8
LOGO_ROCA
 10
0.8014363195998674
 20
12.96535778104629
 30
15.117620549892001
 70
    64
  0
VERTEX
  5
151DE9
  8
LOGO_ROCA
 10
0.8014363195998674
 20
12.98599439452803
 30
15.117890866920369
 70
    64
  0
VERTEX
  5
151DEA
  8
LOGO_ROCA
 10
0.8014363195998674
 20
13.006630818113109
 30
15.118175311832131
 70
    64
  0
VERTEX
  5
151DEB
  8
LOGO_ROCA
 10
0.8014363195998674
 20
13.02715559408295
 30
15.12030401627486
 70
    64
  0
VERTEX
  5
151DEC
  8
LOGO_ROCA
 10
0.8014363195998674
 20
13.047541166066161
 30
15.12350977115574
 70
    64
  0
VERTEX
  5
151DED
  8
LOGO_ROCA
 10
0.8014363195998674
 20
13.0677342678076
 30
15.127762658586571
 70
    64
  0
VERTEX
  5
151DEE
  8
LOGO_ROCA
 10
0.8014363195998674
 20
13.08768114892615
 30
15.133051358150871
 70
    64
  0
SEQEND
  5
151DEF
  8
LOGO_ROCA
  0
3DFACE
  5
151DF0
  8
LOGO_ROCA
 10
0.8014363195998674
 20
12.999304826647281
 30
15.26347731350123
 11
0.8014363195998674
 21
13.08768114892615
 31
15.26676833453943
 12
0.8014363195998674
 22
13.08768114892615
 32
15.133051358150871
 13
0.8014363195998674
 23
12.999304826647281
 33
15.155336941885579
  0
ENDSEC
  0
EOF
